Oops, an error
Loading. Please wait.

Enamorado De Tí tab

32 views 1 this week
no commentswrite comment
1 2 3 4 5
3 more votes to show rating
add to favorites
×
Save as Personal and add changes to this tab that will be seen only by you. Learn more ›
×
You can save this tab as Personal to edit and correct it or add notes. All changes will be seen only by you. Learn more »
launch autoscroll
font size
0
reset
how to read this tab
guitar tuner
edit
Autoscroll
slow
fast
+/-
esc
set tempo
stop
INTRO
El piano empieza: mi mi mi mi sol mi sol mi mi sol sol+si

                  MI MI MI MI SOL MI SOL MI MI SOL SOL+SI


e-------7-----7-------10-10/12-------10-------10-12-10-------------|
B-----8-----8---8-7-8-------------10-------10----------13-12-10----|
G---9-----9--------------------11-------11----------------------12-| x2
D------------------------------------------------------------------|
A------------------------------------------------------------------|
E------------------------------------------------------------------|

RIFF 2:
Antes de que empiece a cantar
e---------------|
B---------------|
G-------7-8-9---|
D---9-9---------|
A---------------|
E---------------|

MIm                         RE
Caminando por la calle yo encontre
                         MIm
una linda morenita ojos café


                     RE
Su mirada impactado me dejo
                         MIm
su belleza hipnotizo mi corazón

                              RE
Con su pelo suelto al viento ella va
                  MIm
moviendo todo su cuerpo al caminar

                     RE
Desde el día que la vi me enamoro
                       MIm             (RE RE RE RE RE MIm)
con sus ojos me ha flechado el corazón

RE               MIm
Enamorado de ti estoy
           RE              MIm
y para ti yo solo un tonto soy
         RE                 MIm
solo te pido que me des tu amor
                RE           MIm
porque sufriendo esta mi corazon

            
            
Suggest correction
Creating personal tab
Creating personal tab
You can edit any tab online and save it as your Personal.

You can edit, replace or remove any tab part or add personal notes – all changes will be seen only by you.

Personal tabs can be accessed anytime from any device, even offline.
Learn more »
Give kudos to tab author, rate the tab!
1 2 3 4 5
comments
print report bad tab
guest
Wanna post a correction for this tab? Suggest correction