Oops, an error
Loading. Please wait.

Recuerdos De Mí tab

version 1
version 1

Whole song

28 views 1 this week
no commentswrite comment
1 2 3 4 5
3 more votes to show rating
add to favorites
×
Save as Personal and add changes to this tab that will be seen only by you. Learn more ›
×
You can save this tab as Personal to edit and correct it or add notes. All changes will be seen only by you. Learn more »
launch autoscroll
font size
0
reset
how to read this tab
guitar tuner
edit
Autoscroll
slow
fast
+/-
esc
set tempo
stop
RECUERDOS DE MI

1 |-------3-----------3-5s8-8-8-7--5------7h10-10-10--8-7-8------------------|
2 |------5---6-5----5---------------8---------------------------6-8-6---8----|
3 |-----5-----------------------------------------------------9-------9------| 
4 |--------------------------------------------------------------------------|
5 |--------------------------------------------------------------------------|
6 |--------------------------------------------------------------------------|

1 |----3h5-3-----------------------------------|
2 |----3-----6-5-3-----------------------------|
3 |----4-----------5---------------------------|
4 |--5-----------------------------------------|
5 |--------------------------------------------|
6 |--------------------------------------------|

(dos veces)

C                     G
Hoy me entere que te vas
F
y dicen tus amigas que es
       C        G
para olvidar-te de mi
C                    G      
Pero yo se que en tu corazon llevaras 
    F                        C       G
recuerdos de mi, y nunca podras olvidar
F                G           C
que fui el primero en llegar a ti
             G            F
y tu con el no seras feliz
             G           C
te aseguro no seras feliz.

C       G              F
Que tiene el que no tenga yo? 
G                  F      
y no me digas que mas amor
            G             C      
porque fui el primero que te amó


aguante la nueva luna y pibes chorros
cualquier duda o consulta, al mail

--El MaGo--
Suggest correction
Creating personal tab
Creating personal tab
You can edit any tab online and save it as your Personal.

You can edit, replace or remove any tab part or add personal notes – all changes will be seen only by you.

Personal tabs can be accessed anytime from any device, even offline.
Learn more »
Give kudos to tab author, rate the tab!
1 2 3 4 5
comments
print report bad tab
guest
Wanna post a correction for this tab? Suggest correction