Oops, an error
Loading. Please wait.

Se Me Olvidó chords

19 views 1 this week
no commentswrite comment
1 2 3 4 5
3 more votes to show rating
add to favorites
×
Save as Personal and add changes to this tab that will be seen only by you. Learn more ›
×
You can save this tab as Personal to edit and correct it or add notes. All changes will be seen only by you. Learn more »
launch autoscroll
font size
0
reset
transpose
0
reset
display chords
guitar tuner
edit
Autoscroll
slow
fast
+/-
esc
set tempo
stop
Strumming
There is no strumming pattern for this song yet. and get +5 IQ
e|------------------------------------------10-----9------10------------
B|-10h12-10-12-10----------10p12p10-------------------------------------
G|-11-------------12-11-12-----------9999/11---11/9---9/11--------------
D|-12-------------------------------------------------------12----------
A|----------------------------------------------------------------------
E|------------------------------------------------------------------------

|-10p10--9-9-7-7-------------------------10p10--9-9-7-7-----9-10-9-9---
|-10-------------10-12p10-12p10----------10---------------12------12-12
|-------------------------------9p11-9p11----------------12-------------
|-----------------------------------------------------------------------
|----------------------------------------------------------------

|-------------------------------------------------------
|-12-12-10-10-9--12/14-12-10----------------------------
|-----------------------------10h12-10-------------------
|--------------------------------------12-11-9------------
|----------------------------------------------12---------
|---------------------------------------------------------
|----------------------------------------------------------


D                     A
Donde hubo fuego dicen que
Bm                 F#m
el amor no se termina
Bm                  F#m
yo en ese caso no creía
Em                    A
y a otros amores me entregue

pero es que acaso el corazón
estaba tan ligado a tí
que te extrañaba toda
que había tanta historia
y ahora recuerdo que al partir

Se me olvido decirte que
aún te quiero todavía
cuanta razón los que decían
donde hubo fuego quedan cenizas

Te dije adiós y para que
si hoy regreso a confezarte
que pude andar...lejos de tí
pero no aprendí a olvidarte

            
            
Suggest correction
Creating personal tab
Creating personal tab
You can edit any tab online and save it as your Personal.

You can edit, replace or remove any tab part or add personal notes – all changes will be seen only by you.

Personal tabs can be accessed anytime from any device, even offline.
Learn more »
Give kudos to tab author, rate the tab!
1 2 3 4 5
comments
print report bad tab
guest
Wanna post a correction for this tab? Suggest correction