Oops, an error
Loading. Please wait.

Y Tu No Estás tab

13 views 1 this week
no commentswrite comment
1 2 3 4 5
3 more votes to show rating
add to favorites
×
Save as Personal and add changes to this tab that will be seen only by you. Learn more ›
×
You can save this tab as Personal to edit and correct it or add notes. All changes will be seen only by you. Learn more »
launch autoscroll
font size
0
reset
how to read this tab
guitar tuner
edit
Autoscroll
slow
fast
+/-
esc
set tempo
stop
intro:

1|------10----10---------------------------------|
2|-----10----10--------------8-9-10--------------|
3|----10----10-------------9---------------------|
4|-12-----12------10-10-10-----------------------|
5|-----------------------------------------------|
6|-----------------------------------------------|

1|------10----10----------8-9-10-----------------|
2|-----10----10----------8-----------------------|
3|----10----10-----9-9-9-------------------------|
4|-12-----12-------------------------------------|
5|-----------------------------------------------|
6|-----------------------------------------------|

(x4) y al finalizar

1|-13-13-10----10--------------------------------|
2|----------13---13-10----10---------------------|
3|---------------------12----12-10-9-------------|
4|-----------------------------------12----------|
5|-----------------------------------------------|
6|-----------------------------------------------|


Dm                        C
Se acerca la noche y tu no estas
                   Gm
que voy a hacer para llenar
                    C
para llenar este vacio.

Dm                     C
Que le digo yo a mi corazon
                    Gm
cuando me pregunte que pasó
                        C      A
como explico yo que tu te has ido  

                 Dm            Gm
Tengo miedo que no pueda soportar
                 A      Dm
la terrible soledad


                 C
Como le digo al corazon que tu no estas
              A                Dm
que tu te has ido y que no volveras
                        C
Cuando me pregunte por ti le mentire
           A           Dm  
pues si le digo lo lastimare.

Como le digo al corazon que tu no estas
que tu te has ido y que no volveras
cuando me pregunte por ti le mentire
puesto que no lo quiero lastimar.


repite todo

y luego

1|-------------8-8-8----8-----------------------|
2|--------8-10-------11---11-8------------------|
3|-7-9-10---------------------------------------|
4|----------------------------------------------|
5|----------------------------------------------|
6|----------------------------------------------|

1|-------------10-10-10-8--10-8-----------------|
2|--------8-10------------------10--------------|
3|-7-9-10---------------------------------------|
4|----------------------------------------------|
5|----------------------------------------------|
6|----------------------------------------------|

(x3)

1|-------------8-8-8----8-----------------------|
2|--------8-10-------11---11-8------------------|
3|-7-9-10---------------------------------------|
4|----------------------------------------------|
5|----------------------------------------------|
6|----------------------------------------------|

1|-------------10-10-8-10-10-8-10-10------------|
2|--------8-10----------------------------------|
3|-7-9-10---------------------------------------|
4|----------------------------------------------|
5|----------------------------------------------|
6|----------------------------------------------|


AGUANTE LA NUEVA LUNA!!!
Cualquier duda, o para intercambiar tabs, al mail
-- El MaGo --

            
            
Suggest correction
Creating personal tab
Creating personal tab
You can edit any tab online and save it as your Personal.

You can edit, replace or remove any tab part or add personal notes – all changes will be seen only by you.

Personal tabs can be accessed anytime from any device, even offline.
Learn more »
Give kudos to tab author, rate the tab!
1 2 3 4 5
comments
print report bad tab
guest
Wanna post a correction for this tab? Suggest correction