Oops, an error
Loading. Please wait.

Fín De Año tab

5 views 1 this week
no commentswrite comment
1 2 3 4 5
3 more votes to show rating
add to favorites
×
Save as Personal and add changes to this tab that will be seen only by you. Learn more ›
×
You can save this tab as Personal to edit and correct it or add notes. All changes will be seen only by you. Learn more »
launch autoscroll
font size
0
reset
how to read this tab
guitar tuner
edit
Autoscroll
slow
fast
+/-
esc
set tempo
stop
E|-----------------------------------------------|
B|-----------------------------------------------|
G|-----------------------------------------------|
D|----33-44-3----44-33-1----33-44-3----44-33-1---| (X2)
A|--4----------1---------------------------------|
E|------------------------2----------4-----------|

E|----------------------------------------------------------|
B|----------------------------------------------------------|
G|--6666-6666------------------------------101010-888-6/8---|
D|--6666-6666--8888-8888--4444-4444--6666--101010-888-6/8---|
A|--4444-4444--8888-8888--4444-4444--6666---8-8-8-666-4/6---|
E|-------------6666-6666--2222-2222--4444-------------------|

E|----------------------------------------------------------|
B|----------------------------------------------------------|
G|--66666--10--8---------10--8---------10--8---------10--8--|
D|--66666--10--8--88888--10--8--44444--10--8--66666--10--8--|
A|--44444---8--6--88888---8--6--44444---8--6--66666---8--6--|
E|----------------66666---------22222---------44444---------|


Verso:
C#5      A#5            F#5              G#5
Un año más iba a terminar sin saber lo que vendría
C#5     A#5        F#5     G#5
Una familia destruida por la traición
C#5         A#5          F#5        G#5
Detrás de todo algo extraño iba a sucederme
C#5    A#5      F#5       G#5
Un momento me marcaría fuertemente

C#5 - D#5 - F5

Verso:(Igual q los demás)
Todos mis amigos se quedaron a celebrar
Un año más para madurar y unirnos más
Después de todo solo contaba con ellos
En mis manos el miedo y el dolor


CORO:
C#5            A#5                 F#5
Que triste navidad, no quiero verla más
                G#5
Malos recuerdos de momentos sin final
C#5               A#5                  F#5
Un nuevo amor surgio, no se como explicar
                    G#5
Todo el mundo imaginaba lo que iba a suceder

E|------------------------------------------|
B|------------------------------------------|
G|--66666-88-1010-8--66666-1111-1010-8------|
D|--66666-88-1010-8--66666-1111-1010-8------|( 2 veces )
A|--44444-66--8-8-6--44444--9-9--8-8-6------|
E|------------------------------------------|

Verso:(Igual q los demás)
Todo esto era algo nuevo para mí
Tuve miedo de hacerme daño otra vez
Mis amigos nunca me dejaron decaer
Con un beso el tiempo quise detener

CORO:
C#5            A#5                 F#5
Que triste navidad, no quiiero verla más
                 G#5
Malos recuerdos de momentos sin final
C#5               A#5                  F#5
Un nuevo amor surgió, no se como explicar
                    G#5
Todo el mundo imaginaba lo que iba a suceder


C#5- PICK SILEDE F5/D#5/C#5(X3) F#5/F5/F#5

F5/D#5/C#5(X2) F5/D#5/F5/F#5

CORO:
C#5            A#5                 F#5
Que triste navidad, no quiero verla más
                 G#5
Malos recuerdos de momentos sin final
C#5               A#5                  F#5
Un nuevo amor surgió, no se como explicar
                    G#5
Todo el mundo imaginaba lo que iba a suceder


C#5-A#5-F#5-G#5 (fade out)

ACORDES:
E|--X----X-----X-----X------X-----X----|
B|--X----X-----X-----X------X-----X----|
G|--6----X-----X-----X-----10-----8----|
D|--6----8-----4-----6-----10-----8----|
A|--4----8-----4-----6------8-----6----|
E|--X----6-----2-----4------X-----X----|
    C#5  A#5   F#5   G#5     F5   D#5

            
            
Suggest correction
Creating personal tab
Creating personal tab
You can edit any tab online and save it as your Personal.

You can edit, replace or remove any tab part or add personal notes – all changes will be seen only by you.

Personal tabs can be accessed anytime from any device, even offline.
Learn more »
Give kudos to tab author, rate the tab!
1 2 3 4 5
comments
print report bad tab
guest
Wanna post a correction for this tab? Suggest correction