Oops, an error
Loading. Please wait.

No Fue Así tab

23 views 1 this week
no commentswrite comment
1 2 3 4 5
3 more votes to show rating
add to favorites
×
Save as Personal and add changes to this tab that will be seen only by you. Learn more ›
×
You can save this tab as Personal to edit and correct it or add notes. All changes will be seen only by you. Learn more »
launch autoscroll
font size
0
reset
how to read this tab
guitar tuner
edit
Autoscroll
slow
fast
+/-
esc
set tempo
stop
Ps creo que mas o menos es asi, pero como no vi
a nueve once por aka lo meti... pa que agreguen mas temas
de nueve once que es uno de los mejores grupos!!

INTRO

E|---------------------------------|
B|---------------------------------|
G|-00000000000000007005004002002^4-|
D|---------------------------------|
A|---------------------------------|
E|---------------------------------|

E|---------------------------------|
B|---------------------------------|
G|-00700500405070(10)--------------|
D|---------------------------------|
A|---------------------------------|
E|---------------------------------|

E|---------------------------------|
B|---------------------------------|
G|-00000000000000007005004002002^4-|
D|---------------------------------|
A|---------------------------------|
E|---------------------------------|

E|---------------------------------|
B|---------------------------------|
G|-00700500405040200--0------------|
D|---------------------------------|
A|---------------------------------|
E|---------------------------------|

En octavas rápido
-*--B-C-B-E--D-C-B-E--D-C-B---CCCCC-B-C-D

E|--X-X-X-X--X-X-X-X--X-X-X-X-XXXXX-X-X-X---|
B|--X-X-X-X--X-X-X-X--X-X-X-X-XXXXX-X-X-X---|
G|--4-5-4-10-7-5-4-10-7-5-4-X-55555-4-5-7---|
D|--X-X-X-X--X-X-X-X--X-X-X-X-XXXXX-X-X-X---|
A|--2-3-2-7--5-3-2-7--5-3-2-X-33333-2-3-5---|
E|--X-X-X-X--X-X-X-X--X-X-X-X-XXXXX-X-X-X---|

E|---------------------------------|
B|--8-11-*11(con ben)--------------|
G|---------------------------------|
D|---------------------------------|
A|---------------------------------|
E|---------------------------------|

**Tengan en cuenta aka que tiene palm mute**
Con P.M. escuchen la canción y sabrán donde


G5-G5-F#5-G5-G5-C5-G5

G5           F#5-G5    G5       C5       Em   Em Em
Recuerda la noche, en que la llamaste amiga
C5              C5
No sabias como ella es
D5            D5
las apariencias siempre engañan
       G5              D5
Quizás tu no te lo esperabas

    E5      C5                 D5
Tenia razón, el parecido no basaba
                  G5
Para tu satisfacción


E|----------------------------------|
B|----------------------------------|
G|-00200500400500200002004005004002-|
D|----------------------------------|
A|----------------------------------|
E|----------------------------------|


E|---------------------------------------|
B|---------------------------------------|
G|-0020040050040020000204050020405-------|
D|---------------------------------------|
A|---------------------------------------|
E|---------------------------------------|

E|---------------------------------------|
B|-00000000100300500008007005------------|
G|---------------------------------------|
D|---------------------------------------|
A|---------------------------------------|
E|---------------------------------------|

E|-------------------------------------------|
B|-1003005000080070050010030050103050010305-8|
G|-------------------------------------------|
D|-------------------------------------------|
A|-------------------------------------------|
E|-------------------------------------------|


G5-G5-G5^g*

g* = armónico cuerda G entre traste 5 y 6 sobre
La rayita metalica, jajajaja? ponga el dedo sobre
La cuerda sin presionar como un apagado?
y ya, sale de una?

G5           D5             E5           C5
Esta noche te lo advertí mas de una vez
    C5                    D5
Te dije que no era para vos
                      G5
Malgastaría un buen rato
      D5           E5
Eran dos sin conocer
       C5           D5
Pretendiste cambiarlaaa
           C5      D5   (pausa)
Y no fue así, lo ves
           E5       D5
Para vos todo es distinto
        C5       D5         G5-------G5
Primero es conocer entiendeloo
         C5         D5
Y no fue así, lo ves
          E5        D5
Todo cambio de repente
        C5           D5
Ya no hay marcha atrás
               G5----G5-D5
Mejor que lo olvides

C5 - D5 - G5 x2

Ya no se me mas, el final es teso
otro dia lo saco o si alguien lo saca bien pueda...
=D? espero que les sirva
De guía al menos?
Alguna corrección me escriben?

            
            
Suggest correction
Creating personal tab
Creating personal tab
You can edit any tab online and save it as your Personal.

You can edit, replace or remove any tab part or add personal notes – all changes will be seen only by you.

Personal tabs can be accessed anytime from any device, even offline.
Learn more »
Give kudos to tab author, rate the tab!
1 2 3 4 5
comments
print report bad tab
guest
Wanna post a correction for this tab? Suggest correction