Oops, an error
Loading. Please wait.

Yo Soy tab

27 views 1 this week
no commentswrite comment
1 2 3 4 5
3 more votes to show rating
add to favorites
×
Save as Personal and add changes to this tab that will be seen only by you. Learn more ›
×
You can save this tab as Personal to edit and correct it or add notes. All changes will be seen only by you. Learn more »
launch autoscroll
font size
0
reset
how to read this tab
guitar tuner
edit
Autoscroll
slow
fast
+/-
esc
set tempo
stop
Le dedico esta preciosa cancion a una preciosa chica de mi tierra. 
Un besazo enorme Nazareth. Viva la Fergo!!!


E---------------------------/----------------------------------/
B---------------------------/----------------------------------/
G---------------------------/------------7---------------7-----/
D-------4-6-7-6-7----6-7----/---6-7-6-4-----4-6-7-6-4----------/
A---3---------------5-------/----------------------------------/
E-5-------------------------/----------------------------------/

-------------------------------------------
-------------------------------------------
-------------------------------------------
--4---------------------------------------
-----2-3------------3-3-------------------
---------0-2-3-5-2-------3-3-2-2-0-0------


E----------------------------------
B----------------------------------
G----------------------------------
D--------2-0-2-deslizar a-6-2------
A--2-0-----------------------------
E----------------------------------


Bm
Yo soy lo que ves
Bm       G             A
un espejismo entre tus pies
Bm
Agua que se va
Bm        G       A
tu boca no la probara
D
Unica y extran~a
D    G             A
como tela de una aran~a
A  Bm
que teji para atraparte
Bm     A
y ha caido no lo ves
D
No me pidas nada
D       G        A
ya conozco esa mirada
A        Bm
seras mio para siempre
Bm            A
antes que empieze a amenecer


CORO:
A         G
Pero soy tuya por un beso
G     Bm            A
si lo pones con ternura
A           G
y en el fondo de mi pecho
G         Bm        A
donde hierve la cordura
A         G
Sere tu abrigo en madrugada
G        Bm          A
por un poco mas que nada
G               A
Solo necesito volar x 2


Bm
Yo naci del sol
Bm       G        A
 en una tarde de calor
Bm
con las notas de
Bm  G             A
una guitarra de perder
D                      G
Y me fui vistiendo de claveles
G          A7
cuando el viento
Bm
su abanico hecho de laca
Bm      A
a moverlo me enseno
D
Soy de vino tinto
D      G           A
mi sabor es del instinto
A      Bm
que se juega en una carta
Bm   A
cada dia el corazon

CORO

            
            
Suggest correction
Creating personal tab
Creating personal tab
You can edit any tab online and save it as your Personal.

You can edit, replace or remove any tab part or add personal notes – all changes will be seen only by you.

Personal tabs can be accessed anytime from any device, even offline.
Learn more »
Give kudos to tab author, rate the tab!
1 2 3 4 5
comments
print report bad tab
guest
Wanna post a correction for this tab? Suggest correction