Oops, an error
Loading. Please wait.

A Través De Los Tiempos tab

version 1
version 1

Whole song

by V8
157 views 1 this week
no commentswrite comment
1 2 3 4 5
3 more votes to show rating
add to favorites
×
Save as Personal and add changes to this tab that will be seen only by you. Learn more ›
×
You can save this tab as Personal to edit and correct it or add notes. All changes will be seen only by you. Learn more »
launch autoscroll
font size
0
reset
how to read this tab
guitar tuner
edit
Autoscroll
slow
fast
+/-
esc
set tempo
stop
INTRO:
                                         x2
Eb|--------------------------------------+-------------------|
Bb|--------------------------------------+-------------------|
Gb|--------------------------------------+-------------------|
Db|--------------------------------------+-------------------|
Ab|--------------------------------------+-8-8-8-8--8-8-8-8--|
Eb|--6-6-6-0-0-0-6-6-6-0-0-0-6-6-6-0-0-0-+-6-6-6-6--6-6-6-6--|


D5#
Gritos de nuestro pasado vienen
a encendernos nuevamente,
degollando burlones fantasmas
que quieren enmudecernos.


    Gritos de nuestro pasado vienen
Eb|-----------------------------------------------------------------|
Bb|-----------------------------------------------------------------|
Gb|--9--------------------9--------------------9--------------------|
Db|--9-9------------------9-9------------------9-9------------------|
Ab|--7-7--7-7--7--7-7--7--7-7--7--7-7--7--7-7--7-7--7--7-7--7--7-7--|
Eb|-----------------------------------------------------------------|

Eb|--12------14------15-----17---------|
Bb|--15/(17)-17/(19)-18(20)---20/(22)--|
Gb|------------------------------------|
Db|------------------------------------|
Ab|------------------------------------|
Eb|------------------------------------|


        a encendernos nuevamente,
Eb|-----------------------------------------------------------------|
Bb|-----------------------------------------------------------------|
Gb|--9--------------------9--------------------9--------------------|
Db|--9-9------------------9-9------------------9-9------------------|
Ab|--7-7--7-7--7--7-7--7--7-7--7--7-7--7--7-7--7-7--7--7-7--7--7-7--|
Eb|-----------------------------------------------------------------|

Eb|--------------------------------|
Bb|--5-----7------9-------10-------|
Gb|--7/(9)-9/(11)-10/(12)-12/(14)--|
Db|--------------------------------|
Ab|--------------------------------|
Eb|--------------------------------|


degollando burlones fantasmas...
Eb|-----------------------------------------------------------------|
Bb|-----------------------------------------------------------------|
Gb|--9--------------------9--------------------9--------------------|
Db|--9-9------------------9-9------------------9-9------------------|
Ab|--7-7--7-7--7--7-7--7--7-7--7--7-7--7--7-7--7-7--7--7-7--7--7-7--|
Eb|-----------------------------------------------------------------|

Eb|-------------------------------------------------|
Bb|-------------------------------------------------|
Gb|------------------------------------10-------10--|
Db|------------------------------------8--------8---|
Ab|--7-7-7-9-9-9-10-10-10-9-9-9--7-7-7----7-7-7-----|
Eb|-------------------------------------------------|


Fm  F#       C5#\C\A5#^G5#
Vamos griten ya, 
Fm F#                G#/F#
la vistoria es nuestra

Voces que frenaron brusca muerte
y avivaron el fuego
despertando al corazón sediento
de libertades y sueños


Viendo lo que otros temen ver
cegados por la confusión,
supieron luchar y vencer
quemando el silencio.

A#   G#         C#  D#               F#
Podemos decir que en tiempos de guerra
    G#       Fm       F#
bien alto levantamos bandera,

lejos de creer que alguien en la tierra
pudiese doblegar nuestras fuerzas.


                        Luchar y vencer
Eb|--------------------------------------------------------------------------------|
Bb|--------------------------------------------------------------------------------|
Gb|--------------------------------------------------------------------------------|
Db|-----------------------------------------------------------------------------5--|
Ab|--7--5-7-5---5-------7--5-7-5---5-------7--5-7-5---5-------7--5-7-5---5---------|
Eb|-----------7---7-6------------7---7-6------------7---7-6------------7---6-6-6---|


                        contra el silencio...
Eb|-----------------------------------------------------------------------------|
Bb|-----------------------------------------------------------------------------|
Gb|-----------------------------------------------------------------------------|
Db|-----------------------------------------------------------------------------|
Ab|--7--5-7-5---5-------7--5-7-5---5-------7--5-7-5---5-------7--5-7-5---5------|
Eb|-----------7---7-6------------7---7-6------------7---7-6------------7---7-6--|


SOLO GUITARRA

Voces que frenaron brusca muerte
y avivaron el fuego
despertando al corazón sediento
de libertades y sueños

Viendo lo que otros temen ver
cegados por la confusión,
supieron luchar y vencer
quemando el silencio.

Podemos decir que en tiempos de guerra
bien alto levantamos bandera,
lejos de creer que alguien en la tierra
pudiese doblegar nuestras fuerzas.

Podemos decir que en tiempos de guerra
bien alto levantamos bandera,
lejos de creer que alguien en la tierra
pudiese doblegar nuestras fuerzas.


  FINAL:
Eb|----------------------------------------------------------|
Bb|----------------------------------------------------------|
Gb|----------------------------------------------------------|
Db|----------------------------------------------------------|
Ab|--7--5-7-5---5-------7--5-7-5---5-------7--5-7-5---5------|
Eb|-----------7---7-6------------7---7-6------------7---7-6--|

            
            
Suggest correction
Creating personal tab
Creating personal tab
You can edit any tab online and save it as your Personal.

You can edit, replace or remove any tab part or add personal notes – all changes will be seen only by you.

Personal tabs can be accessed anytime from any device, even offline.
Learn more »
Give kudos to tab author, rate the tab!
1 2 3 4 5
comments
print report bad tab
guest
Wanna post a correction for this tab? Suggest correction