Oops, an error
Loading. Please wait.

A Través De Los Tiempos tab

version 2
version 2

Whole song

by V8
112 views 1 this week
no commentswrite comment
1 2 3 4 5
3 more votes to show rating
add to favorites
×
Save as Personal and add changes to this tab that will be seen only by you. Learn more ›
×
You can save this tab as Personal to edit and correct it or add notes. All changes will be seen only by you. Learn more »
launch autoscroll
font size
0
reset
how to read this tab
guitar tuner
edit
Autoscroll
slow
fast
+/-
esc
set tempo
stop
No estoy seguro del Do del estribillo, pero bue.
Faltaria nada mas q el solo y el punteo sobre el estribillo final.

Afinación: Mib Lab Reb Solb Sib Mib

Intro:
   LA    RE#    LA    RE#    LA    RE#
|-----------------------------------------
|-----------------------------------------
|-----------------------------------------
|-----------------------------------------
|-----------------------------------------
|--6-6-6-0-0-0--6-6-6-0-0-0--6-6-6-0-0-0--

  LA    RE#    LA    RE#    LA    RE#    LA       LA
-----------------------------------------------------------|
-----------------------------------------------------------|
-----------------------------------------------------------|
-----------------------------------------8-8-8-8--8-8-8-8--|
-----------------------------------------8-8-8-8--8-8-8-8--|
--6-6-6-0-0-0--6-6-6-0-0-0--6-6-6-0-0-0--6-6-6-6--6-6-6-6--|


Base:
  RE#             RE#             RE#
|-------------------------------------------------12----14----15----17----
|-------------------------------------------------15^17-17^19-18^20-20^22-
|-9-9-------------9-9-------------9-9-------------------------------------
|-9-9-------------9-9-------------9-9-------------------------------------
|-7-7-------------7-7-------------7-7-------------------------------------
|-------------------------------------------------------------------------
  Gritos de nuestro    pasado    vienen
  RE#             RE#             RE#
-------------------------------------------------------------------------|
--------------------------------------------------5---7----8-----10------|
-9-9-------------9-9-------------9-9--------------7^9-9^11-10^12-12^14---|
-9-9-------------9-9-------------9-9-------------------------------------|
-7-7-------------7-7-------------7-7-------------------------------------|
-------------------------------------------------------------------------|
 A  encendernos  nuevamente
  RE#               RE#             RE#                 RE#   LA RE#   LA
|-------------------------------------------------------------------------
|-------------------------------------------------------------------------
|-9-9----------------9-9-------------9-9----------------------10-------10-
|-9-9----------------9-9-------------9-9----------------------8--------8--
|-7-7-7-7-7-10-10-10-7-7-7-7-7-5-5-5-7-7-7-7-7-10-10-10-7-7-7----7-7-7----
|-------------------------------------------------------------------------
PM    ..............     ...........     ....................    .....
  Degollando         burlones   fantasmas
 RE#               RE#             RE#
----------------------------------------------------------------------------------|
----------------------------------------------------------------------------------|
-9-9----------------9-9-------------9-9-------------------------------------------|
-9-9----------------9-9-------------9-9-------------------------------------------|
-7-7-7-7-7-10-10-10-7-7-7-7-7-5-5-5-7-7-7-7-7-10-10-10-7-7-7-9-9-9-10-10-10-9-9-9-|
----------------------------------------------------------------------------------|
PM   ..............     ...........     .........................................
 que   quieren    enmudecernos


  FAm     FA#               FAm   FA# SOL# FA#
|-----------------------------------------------------|
|-----------------------------------------------------|
|-----------------------------------------------------|
|-4-------5-----------------4-------5--7-5------------|
|-4-------5-------5-4-2p0---4-------5--7-5------------|
|-2-------3-----------------2-------3--5-3------------|
    Vamos griten ya,          la victoria es nuestra

   RE#                RE#             RE#
|------------------------------------------------------------------------------------|
|------------------------------------------------------------------------------------|
|--9-9----------------9-9-------------9-9--------------------------------------------|
|--9-9----------------9-9-------------9-9--------------------------------------------|
|--7-7-7-7-7-10-10-10-7-7-7-7-7-5-5-5-7-7-7-7-7-10-10-10-7-7-7-9-9-9-10-10-10-9-9-9--|
|------------------------------------------------------------------------------------|
PM     ..............     ...........     .........................................


Base
Voces que frenaron brusca muerte
y avivaron el fuego
despertando al corazón sediento
de libertades y sueños


  FAm           FA#                FAm       FA#  FA# SOL# FA#
|-------------------------------------------------------------------
|-------------------------------------------------------------------
|-------------------------------------------------------------------
|-4-------------5------------------4---------5------5-7-5-----------
|-4-------------5--------5-4-2p0---4---------5------5-7-5-----------
|-2-------------3------------------2---------3------3-5-3-----------
    Viendo lo que otros temen ver    cegado  por la confusión,
 FAm        FA#                FAm           FA#    SOL#
----------------------------------------------------------------|
----------------------------------------------------------------|
----------------------------------------------------------------|
-4----------5------------------4-------------5------7-----------|
-4----------5--------5-4-2p0---4-------------5------7-----------|
-2----------3------------------2-------------3------5-----------|
   supieron luchar y vencer      quemando el silencio ooh!


  LA#   DO        DO#          RE#           FA#    SOL#      FAm      FA#
|-------------------------------------------------------------------------
|-------------------------------------------------------------------------
|-4-----6---------7------------9------------------------------------------
|-4-----6---------7------------9-------------5------7---------4--------5--
|-2-----4---------5------------7-------------5------7---------4--------5--
|--------------------------------------------3------5---------2--------3--
    Podemos decir   que en tiempos de guerra   bien alto levantamos bandera
  LA#     DO        DO#        RE#          FA#         SOL#        FAm          FA#
-----------------------------------------------------------------------------------|
-----------------------------------------------------------------------------------|
--4-------6---------7----------9---------------------------------------------------|
--4-------6---------7----------9------------5-----5-----7-----7-----4------------5-|
--2-2-2-2-4-4-4-4-4-5-5-5-5-5--7-7-7-7-7-7--5-----5-----7-----7-----4------------5-|
--------------------------------------------3-333-3-333-5-555-5-555-2------------3-|
PM  .....   .......   .......    .........    ...   ...   ...   ...
    Lejos de creer que alguien en la tierra           pudiese  doblegar nuestras fuerzas


Puente:
                           Luchar y vencer
|------------------------------------------------------------------------
|------------------------------------------------------------------------
|------------------------------------------------------------------------
|---------------------------------------------------------------------8--
|--7-5h7p5---5------7-5h7p5---5------7-5h7p5---5------7-5h7p5---5-----8--
|----------7---7-6----------7---7-6----------7---7-6----------7---000-6--

                          contra el silencio
-----------------------------------------------------------------------
-----------------------------------------------------------------------
-----------------------------------------------------------------------
-----------------------------------------------------------------------
--7-5h7p5---5------7-5h7p5---5------7-5h7p5---5-------7-5h7p5---5------
----------7---7-6----------7---7-6----------7---7-6-----------7---7-6--


Solo: empieza en la última vuelta del puente
--12-10h12p10----10-------|-10~[14]10--12^14^12^14^12^14^12^14-----------
--------------12----12-11-|---------------------------------------------
--------------------------|---------------------------------------------
--------------------------|---------------------------------------------
--------------------------|---------------------------------------------
--------------------------|---------------------------------------------

Base del Solo: x4
   DO         DO# LA# LA SOL DO          RE#  DO#
|--------------------------------------------------|
|--------------------------------------------------|
|--6-----------7------------6------------9-9--7-7--|
|--6-----------7-----7-6-4--6------------9-9--7-7--|
|--4-444444444-5-555-7-6-4--4-444444444--7-7--5-5--|
|--------------------5-4-2-------------------------|
PM   .........   ...          .........

   RE#            RE#            RE#
|---------------------------------------------------------------------------|
|---------------------------------------------------------------------------|
|--9-9------------9-9------------9-9----------------------------------------|
|--9-9------------9-9------------9-9----------------------------------------|
|--7-7------------7-7------------7-7------------7-7-7-9-9-9-10-10-10-9-9-9--|
|---------------------------------------------------------------------------|
PM                                              ..........................

Voces que frenaron brusca muerte
y avivaron el fuego
despertando al corazón sediento
de libertades y sueños

Viendo lo que otros temen ver
cegado por la confusión,
supieron luchar y vencer
quemando el silencio

Podemos decir que en tiempos de guerra
bien alto levantamos bandera,
lejos de creer que alguien en la tierra
pudiese doblegar nuestras fuerzas

Podemos decir que en tiempos de guerra
bien alto levantamos bandera,
lejos de creer que alguien en la tierra
pudiese doblegar nuestras fuerzas


|-----------------------------------------------------------------------|
|-----------------------------------------------------------------------|
|-----------------------------------------------------------------------|
|-----------------------------------------------------------------------|
|--7-5h7p5---5------7-5h7p5---5------7-5h7p5---5-------7-5h7p5---5------|
|----------7---7-6----------7---7-6----------7---7-6-----------7---7-6--|


^ Bend
h Hammer-on
p Pull-off
~ Vibrato
[] c/ Palanca
PM Palm Mute

Civile no murió!

                 V8
Hermetica  Horcas  Logos  Rata Blanca

Freyre (Cba.)

            
            
Suggest correction
Creating personal tab
Creating personal tab
You can edit any tab online and save it as your Personal.

You can edit, replace or remove any tab part or add personal notes – all changes will be seen only by you.

Personal tabs can be accessed anytime from any device, even offline.
Learn more »
Give kudos to tab author, rate the tab!
1 2 3 4 5
comments
print report bad tab
guest
Wanna post a correction for this tab? Suggest correction