Oops, an error
Loading. Please wait.

Brigadas Metálicas bass

version 2
version 2

Whole song

Interactive

by V8
61 views 1 this week
no commentswrite comment
1 2 3 4 5
3 more votes to show rating
add to favorites
×
Save as Personal and add changes to this tab that will be seen only by you. Learn more ›
×
You can save this tab as Personal to edit and correct it or add notes. All changes will be seen only by you. Learn more »
launch autoscroll
font size
0
reset
guitar tuner
edit
Autoscroll
slow
fast
+/-
esc
set tempo
stop
     (4 veces)              (3 veces)
G|----------------|-----------------------------|----------------------------
D|----------------|-----------------------------|----------------------------
A|-3--5-0---------|-3--5-0--0-0-0-0-0-0-0-0-0-0-|-3--5-0--5-0-0--5-0-0--5-0-0
E|----------------|-----------------------------|----------------------------

             (3 veces)
?Los que estan podridos de aguantar?  ?las caras que marcan el ayer?
G|------------------------------------|--------------------------------
D|-----------------3--3-3-3-3-3-3-----|-----------------3--3-3-3-3-3-3- Parte
A|-5-5-5-5|2--2-2-2---------------3-3-|-5-5-5-5|2--2-2-2---------------   A
E|------------------------------------|--------------------------------

?vengan todos aca hay un lugar junto a la brigada del metal?  \
G|--------------------3-------3-------5-----5---------------  |
D|----------------------------------------------------------  |
A|-5----5-5-5-5-5-1-------1--------3-----3-----5----5-8--7--  |
E|----------------------------------------------------------  |
                                                              | Parte
?gente demente que no es igual a la hiponada de aca?          |   B
G|--------------------3-------3-------5-----5-------------    |
D|--------------------------------------------------------    |
A|-5----5-5-5-5-5-1-------1--------3-----3-----5----------    |
E|--------------------------------------------------------    |
                                                              /
     (3 veces)
?saquene ya la?       ?consuman todo el heavy metal?
G|----------------|----------------------------
D|----------------|---------------------------- Parte
A|-3--5-0---------|-3--5-0--5-0-0--5-0-0--5-0-0   C
E|----------------|----------------------------

Repite parte A, B, C. Despues:

    (3 veces)
G|---------------|------------------
D|---------------|------------------
A|-7--6----------|-7--6--7--6--7--6-
E|---------------|------------------

Repite parte C. Despues:

           (4 veces)
G|--------------------------------|
D|-----------------3--3-3-3-3-3-3-|
A|-5-5-5-5|2--2-2-2---------------|
E|--------------------------------|

G|-------------------------------------------------------------
D|-------------------------------------------------------------
A|-5-5-5-5-5-5-5-5-1-1-1-1-1-1-1-1-3-3-3-3-3-3-3-3-5-5-5-5-5-5-
E|-------------------------------------------------------------

Repite parte C, A, B. Despues:

?vengan todos aca hay un lugar junto a la brigada del metal?
G|--------------------3-------3---------------------------
D|--------------------------------------------------------
A|-5----5-5-5-5-5-1-------1--------3-3-3-3-3-5----5-8--7--
E|--------------------------------------------------------

?gente demente que no es igual a la hiponada de aca?
G|--------------------3-------3-------5-----5----------------------------------
D|-----------------------------------------------------------------------------
A|-5----5-5-5-5-5-1-------1--------3-----3-----5----5-5-5-5-5-5-5-5-5-5------5-
E|-----------------------------------------------------------------------------

x |x : tocar las dos notas consecutivamente rápido por Ej. 5|2

Brigadas metalicas (Iorio)

Los que están podridos de aguantar
El llanto de los quieren paz
Los que están hartos de ver
Las caras que marcan el ayer
Vengan todos acá hay un lugar
Junto a la brigada del metal
Gente demente que no es igual
A la hiponada de acá
Saquense ya la careta
Rompan las ruedas de carreta
Y sin demora ni sospecha
Consuman todo el heavy metal
Basta ya, de signos de paz
Basta de cargar con el morral
Si estas cansado de llorar
Este es el momento de gritar
Que estas vacío de liberación
Y estas muy lleno de represión
El presente te es infeliz
hoy tu mente hippie ha de morir
Prontas están las hordas del mal
Listas para el paso final
Son los que están tan hartos de ver
Las caras que marcan el ayer
Vengan todos acá hay un lugar
Junto a la brigada del metal
Gente demente que no es igual
A la hiponada de acá.

            
            
Suggest correction
Creating personal tab
Creating personal tab
You can edit any tab online and save it as your Personal.

You can edit, replace or remove any tab part or add personal notes – all changes will be seen only by you.

Personal tabs can be accessed anytime from any device, even offline.
Learn more »
Give kudos to tab author, rate the tab!
1 2 3 4 5
comments
print report bad tab
guest
Wanna post a correction for this tab? Suggest correction