Oops, an error
Loading. Please wait.

Ciega Ambición tab

by V8
89 views 1 this week
no commentswrite comment
1 2 3 4 5
3 more votes to show rating
add to favorites
×
Save as Personal and add changes to this tab that will be seen only by you. Learn more ›
×
You can save this tab as Personal to edit and correct it or add notes. All changes will be seen only by you. Learn more »
launch autoscroll
font size
0
reset
how to read this tab
guitar tuner
edit
Autoscroll
slow
fast
+/-
esc
set tempo
stop
INTRO:
e|---------------------------------------------------------------------
B|---------------------------------------------------------------------
G|---------------------------------------------------------------------
D|--11-12-7-9-----------9---11-12-7-9-----------9---11-12-7-9-----------9---11-12-7-9--|
A|--9--10-5-7-7-7-7-7-7-7---9--10-5-7-7-7-7-7-7-7---9--10-5-7-7-7-7-7-7-7---9--10-5-7--|
E|---------------------------------------------------------------------

E5 D5
e|------------------------------------------------------------------+--
B|------------------------------------------------------------------+--
G|------------------------------------------------------------------+--
D|--------------------------------11-12-7-9-----------9--11-12-7-5--+-9-9^7--5-7--5-4aa--|
A|--5-7---5---5-7---5---5-7---5---9--10-5-7-7-7-7-7-7-7--9--10-5-3--+--
E|--3-5-0-3---3-5-0-3---3-5-0-3-------------------------------------+--

E5 D5
e|--------------------+---------------------+-------------------------
B|--------------------+---------------------+-------------------------
G|--------------------+---------------------+-------------------------
D|-5--9--12--7-7---5--+--9-9^7--5-7--5-4aa--+--5-4-4--4-4-4--4-4-4--4-4
A|-3--7--10--5-5---3--+---------------------+--3-2-2--2-2-2--2-2-2--2-2
E|--------------------+---------------------+-------------------------

INTRO como BASE

En grises calles infectadas de tensión
sucias paredes dejan ver la desunión.
Todo está prohibido, salvo ser uno más;
de los que olvidan y piden seguridad.

Suicidando mis horas estoy,
mientras insanos siguen viviendo,
encadenados al desamor
a la división de su ciega ambición.

Sólo escapo en las noches con la desolación,
ángeles vienen a agudizar mi intuición
Con el hecho convivo al esquivar,
el represor programado para matar.

Suicidando mis horas estoy,
mientras insanos siguan viviendo,
encadenados al desamor,
a la división de su ciega ambición.

SOLO GUITARRA

Se está cumpliendo la divina predicción,
y el enredo acresenta el descontrol.
bombas latiendo, pretenden extinguir;
el bil engrendro de un planeta sin amor.

Suicidando mis horas estoy,
mientras insanos siguen viviendo,
encadenados al desamor,
a la división de su ciega ambición. 

FINAL:
F5# / G5
E5 / D5#
E5

SOLO GUITARRA: (aprox.)
e|----------------------------------------|
B|----------------------------------------|
G|--4-------------------------------------|
D|-----5-7--4-5----4-5------5----7-7^5-4--|
A|--------------7------6--7----7----------|
E|----------------------------------------|

e|--------------------------------------------------------|
B|--------------------------------------------------------|
G|--------------------------------------------------------|
D|--9-5--7-4-4--5-4-4--4-4-4--5-4-4--4-4-4--5-4-4------7--|
A|--7-3--5-2-2--3-2-2--0-2-2--3-2-2--0-2-2--3-2-2--7-5-5--|
E|-------------------------------------------------5-3----|

e|---------------+---------------------------+--------------------|
B|---------8-----+---------------------------+------------5/(7)aa-|
G|--9/(11)---9aa-+------------4-5-4--2-4-4/5-+-4-4^2--------------|
D|---------------+-9\--7-5--7----------------+-------5-4----------|
A|---------------+---------------------------+--------------------|
E|---------------+---------------------------+--------------------|

(Tremolo)
e|--------------------------------------------8-------11-7-------------
B|--8^5--------5^8^5---------5-7-8-10-10/(12)---10---------10-7--------
G|------7/(9)--------7/(9)--------------------------------------8------
D|---------------------------------------------------------------10-9-7
A|-----------------------------------------------------------------------10-9-7-6--|
E|---------------------------------------------------------------------

e|------------------------------------------------------------------------------------15~~--|
B|--8-10-10/12-12---5-7-8-/8---5-7-7/8-7---12/(13)-12-10-------10-12~~-13~~-15~~-17~~-------|
G|-------------------------------------------------------12-11---------
D|---------------------------------------------------------------------
A|---------------------------------------------------------------------
E|---------------------------------------------------------------------

e|--14-15-17-17/(19)--------------------|
B|--------------------------------------|
G|--------------------/4-2-----------0--|
D|-------------------------5-5^4-1---2--|
A|---------------------------------2-2--|
E|-----------------------------------0--|

            
            
Suggest correction
Creating personal tab
Creating personal tab
You can edit any tab online and save it as your Personal.

You can edit, replace or remove any tab part or add personal notes – all changes will be seen only by you.

Personal tabs can be accessed anytime from any device, even offline.
Learn more »
Give kudos to tab author, rate the tab!
1 2 3 4 5
comments
print report bad tab
guest
Wanna post a correction for this tab? Suggest correction