Oops, an error
Loading. Please wait.

Ciega Ambición bass

by V8
157 views 1 this week
no commentswrite comment
1 2 3 4 5
3 more votes to show rating
add to favorites
×
Save as Personal and add changes to this tab that will be seen only by you. Learn more ›
×
You can save this tab as Personal to edit and correct it or add notes. All changes will be seen only by you. Learn more »
launch autoscroll
font size
0
reset
guitar tuner
edit
Autoscroll
slow
fast
+/-
esc
set tempo
stop
      (3 veces)                                               \
G|-----------------|-------------                             |
D|-4-5-------------|-4-5---------                             |
A|-----5-7--7-7777-|-----5-7-----                             |
E|-----------------|-------------                             |
                                                              |
      (3 veces)                                               |
G|-----------------|------------------------                  |
D|-5-7---5--5-5555-|-4-5------------4-5-----                  |
A|-----7-----------|-----5-7--7777------5---                  |
E|-----------------|------------------------                  |Parte
                                                              |  A
G|--------------------------------------------------7--7--7-  |
D|-------2-----2-0--0--0--0--------2--2--2--2-5--0----------  |
A|-3-------------------------3------------------------------  |
E|----------------------------------------------------------  |
                                                              |
G|-----------------------------------4---------------4------- |
D|-------2--2--2-0--0--0--0---------------------------------- |
A|-3-------------------------3-2--2----2--2---2--2----------- |
E|----------------------------------------------------------- |
                                                              /
Repite parte A (2 veces mas). Después:

1:45
G|-----------------------------------------------------------------------------
D|-2-----------1----2----2-----------------------------------------------------
A|--------------------------3--5--2-2--3-2-2---------5-5--2-2--3-2-2---------5-
E|--------------------------------------------5-3-3-------------------5-3-3----

durante el solo de guitarra:
                        (3 vueltas)
G|------------------------------------------------------------------|
D|-2--2--2--2--2--2-----------------------------------1--1--1--1--1-|
A|------------------3--3--3--3--3--3-2--2--2--2--2--2---------------|
E|------------------------------------------------------------------|

y en la ultima vuelta de el solo de guitarra:
G|----------------------------------------------------------------------
D|-2--2--2--2--2--2-----------------------------------1------------2----
A|------------------3--3--3--3--3--3-2--2--2--2--2--2---3--2-1----------
E|------------------------------------------------------------4--2------

?se esta cumpliendo?
     (3 veces)
G|-----------------|-------------
D|-4-5-------------|-4-5---------
A|-----5-7--7-7777-|-----5-7-----
E|-----------------|-------------

?por poco tiempo?
      (3 veces)
G|-----------------|------------------------
D|-5-7---5--5-5555-|-4-5------------4-5-----
A|-----7-----------|-----5-7--7777------5---
E|-----------------|------------------------

    ?suicidando mis horas estoy,mientras insanos sigan viviendo?
G|----------------------7-----------------------7--7--7-
D|-------2-----0--0--7-----0--------2-----5--0----------
A|-3--------------------------3-------------------------
E|------------------------------------------------------

    ?encadenados al desamor,a la division,su ciega ambicion?
G|-----------------------------------------------------------------------------
D|-------2--2--2-0--0--0--0----------------------------------------------------
A|-3-------------------------3-2--2---2--2---2--2---2---2-2-2-2-2-2-2-2-2-2-2-?
E|-----------------------------------------------------------------------------

Final
G|-----------------------------------------------------------------------
D|-4---5-----------------------------------------------------------------
A|----------7---6--------------------------------------------------------
E|-------------------------0-0-0-0-0-0-0-0-0-0-0-0-0-0-0-0-?-0-----------


Ciega ambicion (V8)

En grises calles infectadas de tensión
sucias paredes dejan ver los desunión.
todo esta prohibido, salvo ser uno mas,
de los que olvidan y piden seguridad.

Suicidando mis horas estoy,
mientras insanos sigan viviendo,
encadenados al desamor
a la división de su ciega ambición.

Solo escapo en las noches con la desolacion
angeles vienen a agudizar mi intuicion
con el echo convivo al esquivar
al represor programado para matar

Suicidando mis horas estoy,
mientras insanos sigan viviendo,
encadenados al desamor
a la división de su ciega ambición.

Se esta cumpliendo la divina predicción,
y el enredo acrecenta el descontrol.
bombas latiendo, pretenden extinguir,
el vil engendro de un planeta sin amor

Suicidando mis horas estoy,
mientras insanos sigan viviendo
encadenados al desamor,
a la división de su ciega ambición

            
            
Suggest correction
Creating personal tab
Creating personal tab
You can edit any tab online and save it as your Personal.

You can edit, replace or remove any tab part or add personal notes – all changes will be seen only by you.

Personal tabs can be accessed anytime from any device, even offline.
Learn more »
Give kudos to tab author, rate the tab!
1 2 3 4 5
comments
print report bad tab
guest
Wanna post a correction for this tab? Suggest correction