Oops, an error
Loading. Please wait.

Destrucción tab

version 4
version 4

Whole song

Interactive

by V8
71 views 3 this week
no commentswrite comment
1 2 3 4 5
3 more votes to show rating
add to favorites
×
Save as Personal and add changes to this tab that will be seen only by you. Learn more ›
×
You can save this tab as Personal to edit and correct it or add notes. All changes will be seen only by you. Learn more »
launch autoscroll
font size
0
reset
how to read this tab
guitar tuner
edit
Autoscroll
slow
fast
+/-
esc
set tempo
stop
destruccion v8

|----------------------|
|----------------------|
|----------------------|%8
|----------------------|
|---7-------7-/10-10---|
|---5555555-5-/8 -8----|


verso 1
ya no creo...      ya no creo...
|----------------------|
|----------------------|
|--2<--------------2<--|
|--2<--------------2<--|
|--0<--------------0<--|
|----------------------|

   por que nadie cree en mi
|--------------------------|
|--------------------------|
|--------------------------|
|--5---------7-------------|
|--5---------7-------------|
|--3---------5-------------|

|----------------------|
|----------------------|
|----------------------|%1
|----------------------|
|---7-------7-/10-10---|
|---5555555-5-/8 -8----|

 se que la desision de juisio final
 |----------------------------------|
 |----------------------------------|
 |-7--------------------------------|
 |-7----------5---------------------|
 |-5---------5----------------------|
 |-----------3----------------------|

|----------------------|
|----------------------|
|----------------------|%4
|----------------------|
|---7-------7-/10-10---|
|---5555555-5-/8 -8----|

  parese mentira tanta estupides
 |----------------------|
 |----------------------|
 |--2<--------------2<--|
 |--2<--------------2<--|
 |--0<--------------0<--|
 |----------------------|
 tanta ipocresai tanta boludes
 |--------------------------|
 |--------------------------|
 |--------------------------|
 |--5---------7-------------|
 |--5---------7-------------|
 |--3---------5-------------|

 se que la desision de juisio final
|---------------------------|
|---------------------------|
|-----7---------------------|
|-----7--------5------------|
|-----5--------5------------|
|--------------3------------|


|----------------------|
|----------------------|
|----------------------|%2
|----------------------|
|---7-------7-/10-10---|
|---5555555-5-/8 -8----|

|-------------------------|
|-------------------------|
|-----7-------------------|
|-----7--------5----------|
|-----5--------5----------|
|--------------3----------|

solo

|------------------------------------------20-------20--------------------|
|-----------------------20(f)--20(f)--20(f)----20(f)--------------------20|
|-------------------17----------------------------------19-17-------19(f)-|
|14--15--17--17/19--------------------------------------------19-17-------|
|-------------------------------------------------------------------------|
|-------------------------------------------------------------------------|

|------------------------|
|------------------------|
|--19(f)--19-17-19-17----|
|---------------------19-|
|------------------------|
|------------------------|

|--------7---------------------------|
|-----------10-7-------7-------------|
|---9(f)---------9-7-9----9-7-9-7----|%2
|---------------------------------9--|
|------------------------------------|
|------------------------------------|

|---------------------10(f)-10-12-15(f)--|
|-----------10(f)-10---------------------|
|-----9(f)-9-----------------------------|
|--9-------------------------------------|
|----------------------------------------|
|----------------------------------------|

|15-12-14-12---12--15-14-12----12-15-14-12----12|
|------------14-------------14------------14----|
|-----------------------------------------------|%3
|-----------------------------------------------|
|-----------------------------------------------|
|-----------------------------------------------|

|-----------------------------------|
|--15(f)---15-12-15-12-----12-------|
|-----------------------14---14(f)--|
|-----------------------------------|
|-----------------------------------|
|-----------------------------------|

|------------------------------------|
|-----7-9-7-9-7---7------------------|
|9(f)-----------9---9(f)---11-9-7-9-7|
|------------------------------------|%2
|------------------------------------|
|------------------------------------|

|----------------------------|
|--------------------7-------|
|---------------7-9----9(f)--|
|----------7-9---------------|
|----5-7-9-------------------|
|--7-------------------------|

|--------17---17---17(f)--|
|--17(f)------------------|
|-------------------------|
|-------------------------|
|-------------------------|
|-------------------------|

 se siente en el aire la ferte tension
 |----------------------|
 |----------------------|
 |--2<--------------2<--|
 |--2<--------------2<--|
 |--0<--------------0<--|
 |----------------------|
de esa inponente fure de mi motor
 |--------------------------|
 |--------------------------|
 |--------------------------|
 |--5---------7-------------|
 |--5---------7-------------|
 |--3---------5-------------|

|----------------------|
|----------------------|
|----------------------|
|----------------------|
|---7-------7-/10-10---|
|---5555555-5-/8 -8----|

que arrasara con todos ytanvien con vos
 |----------------------|
 |----------------------|
 |--2<--------------2<--|
 |--2<--------------2<--|
 |--0<--------------0<--|
 |----------------------|
que moriras llorando por blando que sos
 |--------------------------|
 |--------------------------|
 |--------------------------|
 |--5---------7-------------|
 |--5---------7-------------|
 |--3---------5-------------|

 |----------------------|
 |----------------------|
 |----------------------|
 |----------------------|
 |---7-------7-/10-10---|
 |---5555555-5-/8 -8----|

Se que la desicion del juicio final
|-------------------------|
|-------------------------|
|-----7-------------------|
|-----7--------5----------|
|-----5--------5----------|
|--------------3----------|

 |----------------------|
 |----------------------|
 |----------------------|
 |----------------------|
 |---7-------7-/10-10---|
 |---5555555-5-/8 -8----|


sera la solucion, destruccion.

|-------------------------|
|-------------------------|
|-----7-------------------|
|-----7--------5----------|
|-----5--------5----------|
|--------------3----------|

|------------------------------|
|------------------------------|
|9-----------------------------|
|9-----------------------------|
|7--7-7-7-7-7-7-7-7-7-7-7-7-7-7|
|------------------------------|

|------------------------------|
|------------------------------|
|7-----------------------------|
|7-----------------------------|
|5--5-5-5-5-5-5-5-5-5-5-5-5-5-5|
|------------------------------|

|--------------------------------|
|--------------------------------|
|5----------------4--5--4-------2|
|5----------------4--5--4-------2|
|3---3-3-3-3-3-3--2--3--2-------0|
|--------------------------------|


(f) = estirar
(<) = deslizar

aguante
v8
y aguante todo el heavi nacional
civile no murio

            
            
Suggest correction
Creating personal tab
Creating personal tab
You can edit any tab online and save it as your Personal.

You can edit, replace or remove any tab part or add personal notes – all changes will be seen only by you.

Personal tabs can be accessed anytime from any device, even offline.
Learn more »
Give kudos to tab author, rate the tab!
1 2 3 4 5
comments
print report bad tab
guest
Wanna post a correction for this tab? Suggest correction