Oops, an error
Loading. Please wait.

No Enloqueceré bass

by V8
31 views 1 this week
no commentswrite comment
1 2 3 4 5
3 more votes to show rating
add to favorites
×
Save as Personal and add changes to this tab that will be seen only by you. Learn more ›
×
You can save this tab as Personal to edit and correct it or add notes. All changes will be seen only by you. Learn more »
launch autoscroll
font size
0
reset
guitar tuner
edit
Autoscroll
slow
fast
+/-
esc
set tempo
stop
Intro
G|--------------------------------------
D|------------------------------7---7---
A|-0--------0--------0--------0---------
E|--------------------------------------

              (2 veces)
G|--------------------------------------|
D|--7-7|5-5------------7-7|5-5----------|
A|0------7---7-6|5|3-0------7---7--5--3-|
E|--------------------------------------|

               (2 veces)
G|-----------------5|7-----------------------|
D|-0-0-3|0-5--6--7------0-0-3|0-5--6--7--7|7-|
A|-------------------------------------------|
E|-------------------------------------------|

             (2 veces)
G|---------------------------------|
D|--7-7|5-5------------7-7|5-5-----|
A|0------7---7-6|5|3-0------7---7--|
E|---------------------------------|

      ?Ya no estoy cansado?             ?nada sigue igual?
G|-----------------------------------------------------------
D|--------------------------------------------------------5--
A|-5-5-----5-5-----5-5-----5-5----12\7--7-7-7-7-7-5-7-7-7--7-
E|-----------------------------------------------------------
         ?he parado de correr?             ?nada sigue igual?
G|----------------------------------7----------------------------
D|--------------------------------7---7-----------------------5--
A|-7-7-5-7--7-7-7-7-7-7-5--5--5---------7-7-7-7-7-7-7-5-7-7-7--7-
E|---------------------------------------------------------------
   ?ahora si entiendo que?              ?con la presencia de dios aquí?
G|-------------------------7--7-----------------------------------
D|----------------------------------------------------------------
A|-7-7-5-7--7-7-7-7-7-7-5---------5/12\3--3-3-3-3-3---2----2--2--2
E|----------------------------------------------------------------

   ?mi alma no ha de morir?                  ?me han de confun-
G|---------------------------------------------------7--------
D|------------------------------------------------------------
A|-3--3-3-3-3-3---2----2---2---2-3--3-3-3-3-3-3-5--5---5-5-5-5
E|------------------------------------------------------------

dir?
G|-------9--7-----------9--7--9-
D|-----9------9-7----9------9---
A|-7--------------7--7----------
E|------------------------------

G|--------------------------------------------------------------------------
D|--7-7|5-5------------7-7|5-5------------7-7|5-7-----------7-7|5-5---------
A|0------7---7-6|5|3-0------7---7--\15--0------7--7-6|5|3-0------7---7------
E|----------------------------------------------------------------------7h10

              (2 veces)
G|---------------------------------|----------------
D|---------------------------------|----------------
A|---------------------------------|----------------
E|-1--1--1-3--3--3-5-5-5-5-5-5-5-5-|-1-------3------

G|-----------------------------------------
D|------------------------------7---7-7-7-7
A|-0--------0--------0--------0------------
E|-----------------------------------------

Durante el solo de guitarra:
G|--------------------------------------------------------------------
D|--------------------------------------------------------------------
A|-0-0-0-0-0-0-0-0-0-0-0-0-0-0-0-0-0-0-0-0-0-0-0-0-0-0-0-0-0-0---0--3-
E|--------------------------------------------------------------------

G|-------------------------------------------------------------
D|-------------------------------------------------------------
A|-5-5-5-5-5-5-5-3-5---5-5-5-5-5-3-5---5-5-5-5-5-5-0--0--0--0-0
E|-------------------------------------------------------------

G|--------------------------------------------------
D|--------------------------------------------------
A|--------------------------------------------------
E|-3-5--5--5--5-5-3--1--1--1-3--3--3-5-5-5-5-5-5-5-5

G|-----------------------------------------------------------------
D|--------------------7-7-7-7-7-7-7-------------5-5----------------
A|-----------------------------------------------------------------
E|-1--1--1-3--3--3-5----------------1--1--1-3-------5-5-5-5-5-5-5-5

G|----------------------------------------------------------
D|-----------------------------------------------7---7-7-7-7
A|-----------------0--------0--------0--------0-------------
E|-1--1--1-3------------------------------------------------

              (2 veces)
G|--------------------------------------|
D|--7-7|5-5------------7-7|5-5----------|
A|0------7---7-6|5|3-0------7---7--5--3-|
E|--------------------------------------|

               (2 veces)
G|-----------------5|7-----------------------|
D|-0-0-3|0-5--6--7------0-0-3|0-5--6--7--7|7-|
A|-------------------------------------------|
E|-------------------------------------------|

G|-----------------------------------------------------------------------
D|--7-7|5-5------------7-7|5-5------------7-7|5-7-----------7-7|5-5------
A|0------7---7-6|5|3-0------7---7--\15--0------7--7-6|5|3-0------7---7---
E|-----------------------------------------------------------------------

      ?Ya no estoy cansado?                ?nada sigue igual?
G|-------------------------------7-7-7---------------------------
D|-----------------------------7-------5----------------------5--
A|-5-5-----5-5-----5-5-----5-------------7--7-7-7-7-7-5/7-7-7--7-
E|---------------------------------------------------------------

         ?he parado de correr?             ?nada sigue igual?
G|--------------------------7--7---7---------------------------
D|-------------------------7--------------------------------5--
A|-7-7-5-7--7-7-7-7-7-7-5--------------7--7-7-7-7-7-5-7-7-7--7-
E|-------------------------------------------------------------

   ?ahora si entiendo que?              ?quien te induce a evadir?
G|-----------------------------------------------------------------
D|----------------------7--7---7---7-------------------------------
A|-7-7-5-7--7-7-7-7-7-7-5--5---5---5----3--3-3-3-3-3---2----2--2--2
E|-----------------------------------------------------------------

   ?es quien te ha de reprimir?                    ?no quiero se-
G|-------------------------------------------------7--------
D|----------------------------------------------------------
A|-3--3-3-3-3-3---2----2--2--2-3--------------5--5---5-5-5-5
E|----------------------------------------------------------

guir?
G|-------9--7-----------9--7-----
D|-----9------9-7----9------9-7--
A|-7--------------7--7-----------
E|-------------------------------

G|--------------------------------------------------------------------------
D|--7-7|5-5------------7-7|5-5------------7-7|5-7-----------7-7|5-5---------
A|0------7---7--5--3-0------7---7--\15--0------7--7-6|5|3-0------7---7------
E|----------------------------------------------------------------------7h10

              (2 veces)
G|---------------------------------|
D|---------------------------------|
A|---------------------------------|
E|-1--1--1-3--3--3-5-5-5-5-5-5-5-5-|

                       ?no he de enloquecer?
G|-----------------------------------------------------------------------------
D|-----------------------------------------------------------------------------
A|-----------------------------------------------------------------------------
E|-1--1--1-3--3--3-5-----5-----5-----5-----5-5-5-5-5-5-5-5-5-5-5-5-5-?--5------


El original de este tema esta un cuarto de semitono mas grave que la afinacion
comun (La 440).


     /: slide up (?arrastrar? hacia adelante)
     \: slide down (?arrastrar hacia atrás)
     h: hammer on (ligado)
 x |x : tocar las dos notas consecutivamente rápido por Ej. 7|5


No enloqueceré (Iorio-Zamarbide-Roldan-Cenci)

Ya no estoy cansado se muy bien que hacer,
ahora lo comprendo no he de enloquecer.
Nada sigue igual ya murió el ayer,he parado de correr,

Nada sigue igual ya murió el ayer,
ahora si entiendo que con la presencia de Dios aquí
mi alma no ha de morir,con ningún temor me han de confundir.

Ya no estoy cansado se muy bien que hacer,
ahora lo comprendo no he de enloquecer.
Nada sigue igual ya murió el ayer,he parado de correr,

Nada sigue igual ya murió el ayer,
ahora si entiendo que quien te induce a evadir
es quien te ha de reprimir con ese ardor no quiero seguir,
No quiero seguir

No he de enloquecer,No he de enloquecer, No he de enloquecer.

            
            
Suggest correction
Creating personal tab
Creating personal tab
You can edit any tab online and save it as your Personal.

You can edit, replace or remove any tab part or add personal notes – all changes will be seen only by you.

Personal tabs can be accessed anytime from any device, even offline.
Learn more »
Give kudos to tab author, rate the tab!
1 2 3 4 5
comments
print report bad tab
guest
Wanna post a correction for this tab? Suggest correction