Oops, an error
Loading. Please wait.

Tiempos Metálicos tab

version 1
version 1

Whole song

by V8
64 views 1 this week
no commentswrite comment
1 2 3 4 5
3 more votes to show rating
add to favorites
×
Save as Personal and add changes to this tab that will be seen only by you. Learn more ›
×
You can save this tab as Personal to edit and correct it or add notes. All changes will be seen only by you. Learn more »
launch autoscroll
font size
0
reset
how to read this tab
guitar tuner
edit
Autoscroll
slow
fast
+/-
esc
set tempo
stop
INTRO:
e|---------------------------------------------------------------------|
B|---------------------------------------------------------------------|
G|---------------------------------------------------------------------|
D|-----9--5-------------------9--5-------------------9--5-----------7--|
A|--7--7--3--3-2^3^2--7\---7--7--3--3-2^3^2--7\---7--7--3--3-2^3^2--5--|
E|--5-----------------5\---5-----------------5\---5--------------------|

                                                        2da X 2
e|-----------------------------------------------------+-----------|
B|-----------------------------------------------------+-----------|X2
G|-----------------------------------------------------+-----------|
D|-----------------------------------------------------+--------7--|
A|--7---------------3/7---------------5/7--------------+--3^2^0-5--|
E|--5--5-5-5-5-5-5--5/5--5-5-5-5-5-5--3/5--5-5-5-5-5-5-+-----------|


A5
Basta de hippies

A5
basta de rogar

G5               D5/C5
estalló el tiempo del metal.


Fuerza encarnada
En mí rugiendo está
Nadie la podrá frenar


C        A5
Estalla la tierra

C         A5
En llamas está

C          A5     D5
Mis sentimientos no he de ocultar


Harto de crisis y de escuchar
Propuestas que no servirán
Me hundo en el barro
De la maldad
Se aproxima el final

Se extiende la fuerza
Del candente metal
Se escapa el tiempo
Y no existe paz

SOLO GUITARRA

Basta de engaños
De pensar y actuar
Como quieren los demás
Demencias sin causas
¿Quién las frenará?
¿Quién se arriesgará a negar?
Que estalla la tierra
Y que en llamas está
Se escapa el tiempo

D5
Y no existe paz

E5             F5        G5
No existe paz, no existe paz.

            
            
Suggest correction
Creating personal tab
Creating personal tab
You can edit any tab online and save it as your Personal.

You can edit, replace or remove any tab part or add personal notes – all changes will be seen only by you.

Personal tabs can be accessed anytime from any device, even offline.
Learn more »
Give kudos to tab author, rate the tab!
1 2 3 4 5
comments
print report bad tab
guest
Wanna post a correction for this tab? Suggest correction