Oops, an error
Loading. Please wait.

Tiempos Metálicos bass

by V8
88 views 1 this week
no commentswrite comment
1 2 3 4 5
3 more votes to show rating
add to favorites
×
Save as Personal and add changes to this tab that will be seen only by you. Learn more ›
×
You can save this tab as Personal to edit and correct it or add notes. All changes will be seen only by you. Learn more »
launch autoscroll
font size
0
reset
guitar tuner
edit
Autoscroll
slow
fast
+/-
esc
set tempo
stop
          (2 veces)
G|------------------------|---------------------------
D|------------------------|---------------------------
A|----7-------------------|----7-------------5--------
E|-5-----8---7-8-7--5/12\-|-5-----8---7-8-7-----------

                                                 \
G|----------------------------------             |
D|----------------------------------             |
A|--------------------------3-2-0-5-             |
E|-5------3-5------3-5--------------             |  Parte
                                                 |    A
G|-------------------------------------------    |
D|-------------------------------------------    |
A|--------------------------3-2-0-5--3-2-0-5-    |
E|-5------3-5------3-5-----------------------    |
                                                 /


                    (2 vueltas)
?Basta de hippies?     ?estallo el tiempo del metal?
G|----------------------------------------------------|
D|----------------------------------------------------| Parte
A|-0-0--0-0-3--0-0--0-0-3---------------5----5-5--3-2-|   B
E|--------------------------3-----3-------------------|

talla la tierra?  ?en llamas esta?
G|------------------------------------------
D|-----------7-7--7-7-----------------------
A|-3-3--3-3-------------3-3--3-3--0-0--0-0--
E|------------------------------------------

?mis sentimientos?   ?no he de ocultar?
G|----------------------------------
D|----------------------------------
A|-3-3--3-3--0-0--0-0--5--5--5--5---
E|----------------------------------

Repite parte B. Despues:

tiende la fuerza?    ?del candente metal?
G|-----------------14----------------------14--
D|--------------14----------------------14-----
A|-3-3--3-3--0--------12---3-3--3-3--0---------
E|---------------------------------------------

?se escapa el tiempo,y no existe paz?
G|---------------------------------------
D|---------------------------------------
A|-3-3--3-3--0-0--0-0--5--5--5--5--------
E|---------------------------------------

Durante el solo de guitarra repite parte B. Despues:

                                                        \
G|----------------------------------------------------- |
D|----------------------------------------------------- |
A|-0--0--0---0-0-0-0--0--0---0-0-0-0--0--0--0-0-0-0---- |
E|----------------------------------------------------- |
                                                        | 2 vueltas
G|---------------------------------|                    |
D|---------------------------------|                    |
A|-8--7-5-------------5--5-----3-2-|                    |
E|--------8-3---3---3--------------|                    |
                                                        /

Repite parte A, B. Despues:

talla la tierra?  ?en llamas esta?      ?que se escapa?    ?y no existe paz?
G|-------------------------------------14-------------------------------
D|-----------7-7--7-7---------------14----------------------------------
A|-3-3--3-3------------3-3--3-3--0---------3-3--3-3--0-0--0-0--5-5--5-5-
E|----------------------------------------------------------------------

 ?no existe paz?
G|------------------------------------------------------------------
D|-------------------------------------------10-9-5-7---------------
A|-7-7--7-7---8-8--8-10--------------8-10-10------------------------
E|------------------------------------------------------------------


El original de este tema esta un cuarto de semitono mas grave que la afinacion
comun (La 440).


 /: slide up (?arrastrar? hacia adelante)
 \: slide down (?arrastrar hacia atrás)


Tiempos metalicos (Iorio)

Basta de hippies
basta de rogar
estalló el tiempo del metal
Fuerza encarnada
en mí rugiendo está
nadie la podrá frenar

Estalla la tierra
en llamas está
mis sentimientos no he de ocultar

Harto de crisis y de escuchar
propuestas que no servirán
Me hundo en el barro
de la maldad
se aproxima el final

se extiende la fuerza
del candente metal
se escapa el tiempo
y no existe paz

Basta de engaños
de pensar y actuar
como quieren los demás
demencias sin causas
¿quién las frenará?
¿quién se arriesgará a negar?

que estalla la tierra
y que en llamas está
se escapa el tiempo
y no existe paz
no existe paz, no existe paz.
Suggest correction
Creating personal tab
Creating personal tab
You can edit any tab online and save it as your Personal.

You can edit, replace or remove any tab part or add personal notes – all changes will be seen only by you.

Personal tabs can be accessed anytime from any device, even offline.
Learn more »
Give kudos to tab author, rate the tab!
1 2 3 4 5
comments
print report bad tab
guest
Wanna post a correction for this tab? Suggest correction