Oops, an error
Loading. Please wait.

Trágico Siglo tab

by V8
70 views 1 this week
no commentswrite comment
1 2 3 4 5
3 more votes to show rating
add to favorites
×
Save as Personal and add changes to this tab that will be seen only by you. Learn more ›
×
You can save this tab as Personal to edit and correct it or add notes. All changes will be seen only by you. Learn more »
launch autoscroll
font size
0
reset
how to read this tab
guitar tuner
edit
Autoscroll
slow
fast
+/-
esc
set tempo
stop
Acordes de 5ta. Falta el solo como de costumbre.

Intro:
  RE MI         RE MI            RE MI         RE MI
|-------------------------------------------------------------------|
|-------------------------------------------------------------------|
|--7-9-----------7-9--------------7-9-----------7-9-----------------|
|--7-9-----------7-9--------------7-9-----------7-9-----------------|
|--5-7-----------5-7--------------5-7-----------5-7-----------------|
|-------------------------------------------------------------------|
|                                                                   |
|-------------------------------------------------------------------|
|-------------------------------------------------------------------|
|--------7------------------------------7-----------9-7-5-----------|
|-----/7---7-5-4-------5-4-2------/7---7-5-4-----------9-9/10-5--|
|----------------------------5-2------------------------------------|
|-------------------------------------------------------------------|

  RE DO                           RE DO            LA     SI
|------------------------------------------------------------|
|------------------------------------------------------------|
|--7-5-----------------------------7-5-----------------------|
|--7-5-----------------------------7-5-------------7------9--|
|--5-3-----------------------------5-3-------------7------9--|
|--------------------------------------------------5------7--|
|                                                            |
|------------------------------------------------------------|
|------------------------------------------------------------|
|--------7-----------------7-------------7-------------------|
|-----/7---7-5-4--------/7---7-5-4----/7---7-5-4---7------9--|
|----------------7-5-7---------------------------7-7------9--|
|--------------------------------------------------5------7--|

   MI   RE DO     SI         MI   RE DO     SI    SI DO SI   SI DO SI        RE MI
|----------------------------------------------------------------------------------|
|----------------------------------------------------------------------------------|
|--9-9--7-5-5--5-/4------44--9-9--7-5-5--5-/4------4/5/4------4/5/4----------7-/9--|
|--9-9--7-5-5--5-/4------44--9-9--7-5-5--5-/4------4/5/4------4/5/4----------7-/9--|
|--7-7--5-3-3--3-/2-2222-22--7-7--5-3-3--3-/2-2222-2/3/2-2222-2/3/2-22222222-5-/7--|
|----------------------------------------------------------------------------------|
PM                  ....                      ....       ....       ........


MI           RE    DO SI LA
  Suscitando signos
MI         RE        DO SI LA
  anuncian que han de venir,
MI                RE    DO SI LA
  las huestes del cielo,
MI               RE    DO SI LA
  de los tiempos es el fin


  SOL                  FA#    MI            DO   RE
|-----------------------------------------------------
|-----------------------------------------------------
|----------------------7------9-------------5------7--
|-5--------------------7------9-------------5------7--
|-5--------------------5------7---10--9--7--3------5--
|-3---------------------------------------------------
  Guárdate limpio de engaños,  no quemes tu ser
 SOL          FA#         MI             DO   RE       MI
---------------------------------------------------------|
---------------------------------------------------------|
--------------7-----------9--------------5------7------9-|
-5------------7-----------9--------------5------7------9-|
-5------------5-----------7---10--9--7---3------5------7-|
-3-------------------------------------------------------|
   Temes el pasado perder      y no el Espíritu del Señor

Intro

Un trágico siglo
quema conciencias aquí,
en tierra de ciegos
que no saben elegir

Cierra tus ojos a la evasión,
aléjala de tí
Aunque simule en ayuda venir
todo culmina en una ilusión

Solo:
   MI             RE DO SI LA MI              LA  SI
|----------------------------------------------------|
|----------------------------------------------------|
|--9-9-----9-9-----7---5-4-2--9-9-----9-9-----2---4--| x2
|--9-9-----9-9-----7---5-4-2--9-9-----9-9-----2---4--|
|--7-7-----7-7-----5---3-2-0--7-7-----7-7-----0---2--|
|------000-----000----------------000-----000--------|
PM     ...     ...                ...     ...

Cierra tus ojos a la evasión,
aléjala de tí
Aunque simule en ayuda venir
todo culmina en una ilusión

Intro

Un gran sacrificio,
en la cruz hizo por mi
La sangre del Cristo
mi aflicción vino a cubrir

Cierra tus ojos a la evasión,
aléjala de tí
Aunque simule en ayuda venir
todo culmina en ilusión

             RE MI
|------------------|
|------------------|
|-----7-------7-9--|
|--/7---7-5-4-7-9--|
|-------------5-7--|
|------------------|


                 V8
Hermetica  Horcas  Logos  Rata Blanca

Freyre (Cba.)
Suggest correction
Creating personal tab
Creating personal tab
You can edit any tab online and save it as your Personal.

You can edit, replace or remove any tab part or add personal notes – all changes will be seen only by you.

Personal tabs can be accessed anytime from any device, even offline.
Learn more »
Give kudos to tab author, rate the tab!
1 2 3 4 5
comments
print report bad tab
guest
Wanna post a correction for this tab? Suggest correction