Oops, an error
Loading. Please wait.

Consíguete Una Vida tab

by Vadca
97 views 1 this week
no commentswrite comment
1 2 3 4 5
3 more votes to show rating
add to favorites
×
Save as Personal and add changes to this tab that will be seen only by you. Learn more ›
×
You can save this tab as Personal to edit and correct it or add notes. All changes will be seen only by you. Learn more »
launch autoscroll
font size
0
reset
how to read this tab
guitar tuner
edit
Autoscroll
slow
fast
+/-
esc
set tempo
stop
Transcripcion echa 100% por mi 100% correcta
La rola esta esta chida y muy facil!!!
Califiquenla!!!!
La cancion es en si esta muy fácil.
La afinación es la standart.
(eBGDAE)

Con letra para que no se pierdan nada de la cancion........


La canción comienza con el RIFF de coro que es así:

---------------------------- X2-----------------------------------------
   D5       F5   E5   A#5    F5    E5   F5       F5   E5    C5   C#5
e------------------------------------------------------------------------
B------------------------------------------------------------------------
G--7-7-7-7-10-10-9-9---------10-10-9-9---------10-10-9-9-5-5-5-5-6-6-6-6-
D--7-7-7-7-10-10-9-9-8-8-8-8-10-10-9-9-3-3-3-3-10-10-9-9-5-5-5-5-6-6-6-6-
A--5-5-5-5-8 -8 -7-7-8-8-8-8-8 -8 -7-7-3-3-3-3-8 -8 -7-7-3-3-3-3-4-4-4-4-
E--------------------6-6-6-6-----------1-1-1-1---------------------------

---------------------------- X2-----------------------------------------
Y luego sigue el primer verso que es así:

     D5                A5            A#5     C5         D5
e------------------------------------------------------------------
B------------------------------------------------------------------
G--7-7-7-7-7-7-7-7-------------------------5-5-5-5-7-7-7-7-7-7-7-7-
D--7-7-7-7-7-7-7-7-7-7-7-7-7-7-7-7-8-8-8-8-5-5-5-5-7-7-7-7-7-7-7-7- X2
A--5-5-5-5-5-5-5-5-7-7-7-7-7-7-7-7-8-8-8-8-3-3-3-3-5-5-5-5-5-5-5-5-
E------------------5-5-5-5-5-5-5-5-6-6-6-6-------------------------

Verso 1
Hace bastante tiempo atrás, que dedicas tu vida a discriminar,
mucha gente has de pisotear, porque crees que eres superior y vales mas.

Aqui entra un cambio para que se escuche igual que en la cancion
deberas hacer PALM MUTE CUANDO TOQUES LA NOTA DE A


     D5                A5            A#5     C5         D5
e------------------------------------------------------------------
B------------------------------------------------------------------
G--7-7-7-7-7-7-7-7-------------------------5-5-5-5-7-7-7-7-7-7-7-7-
D--7-7-7-7-7-7-7-7-7-7-7-7-7-7-7-7-8-8-8-8-5-5-5-5-7-7-7-7-7-7-7-7- X2
A--5-5-5-5-5-5-5-5-7-7-7-7-7-7-7-7-8-8-8-8-3-3-3-3-5-5-5-5-5-5-5-5-
E------------------5-5-5-5-5-5-5-5-6-6-6-6-------------------------
                   p.m. p.m. p.m.

Cambio (Pre-coro)
No te das cuenta que mucho te ha de importar,
lo que piensan y viven los demás,
y tanto te has preocupado de juzgar, que tu vida vacía se ha de quedar.

Y el coro es igual que el Intro x4:
-------------------------x4------------------------------------
   D5       F5   E5   A#5    F5    E5   F5       F5   E5    C5   C#5
e------------------------------------------------------------------------
B------------------------------------------------------------------------
G--7-7-7-7-10-10-9-9---------10-10-9-9---------10-10-9-9-5-5-5-5-6-6-6-6-
D--7-7-7-7-10-10-9-9-8-8-8-8-10-10-9-9-3-3-3-3-10-10-9-9-5-5-5-5-6-6-6-6-
A--5-5-5-5-8 -8 -7-7-8-8-8-8-8 -8 -7-7-3-3-3-3-8 -8 -7-7-3-3-3-3-4-4-4-4-
E--------------------6-6-6-6-----------1-1-1-1---------------------------
--------------------------------X4---------------------------------

Coro
Dime, yo no te creo, yo no te siento y nada me obliga a callar sin saber,
que hay tantas cosas, que las mata el tiempo,
haciendo que todo se olvide sin entender
acciones que atan, a la ignorancia, al odio vacio de existir sin porque,
es el peso que cargas de tu arrogancia,
que aplasta tu vida sin lograr comprender.


En esta parte es lo mismo que el verso 1 pero
hacer PALM MUTE CUANDO TOQUES LA NOTA DE A

     D5                A5            A#5     C5         D5
e------------------------------------------------------------------
B------------------------------------------------------------------
G--7-7-7-7-7-7-7-7-------------------------5-5-5-5-7-7-7-7-7-7-7-7-
D--7-7-7-7-7-7-7-7-7-7-7-7-7-7-7-7-8-8-8-8-5-5-5-5-7-7-7-7-7-7-7-7- X2
A--5-5-5-5-5-5-5-5-7-7-7-7-7-7-7-7-8-8-8-8-3-3-3-3-5-5-5-5-5-5-5-5-
E------------------5-5-5-5-5-5-5-5-6-6-6-6-------------------------
                   p.m. p.m. p.m.


eeeeeeeeeeeeeeeeeeeeeeeeeeeeeeeeeeeeeeeeeeeeeeeeeeeeeeerrrrrrrrrr. x2

Se repite el Intro
--------------------------X2----------------------------------------
   D5       F5   E5   A#5    F5    E5   F5       F5   E5    C5   C#5
e------------------------------------------------------------------------
B------------------------------------------------------------------------
G--7-7-7-7-10-10-9-9---------10-10-9-9---------10-10-9-9-5-5-5-5-6-6-6-6-
D--7-7-7-7-10-10-9-9-8-8-8-8-10-10-9-9-3-3-3-3-10-10-9-9-5-5-5-5-6-6-6-6-
A--5-5-5-5-8 -8 -7-7-8-8-8-8-8 -8 -7-7-3-3-3-3-8 -8 -7-7-3-3-3-3-4-4-4-4-
E--------------------6-6-6-6-----------1-1-1-1---------------------------
----------------------------X2---------------------------------------

Y luego sigue el primer verso 2 que es así:

     D5                A5            A#5     C5         D5
e------------------------------------------------------------------
B------------------------------------------------------------------
G--7-7-7-7-7-7-7-7-------------------------5-5-5-5-7-7-7-7-7-7-7-7-
D--7-7-7-7-7-7-7-7-7-7-7-7-7-7-7-7-8-8-8-8-5-5-5-5-7-7-7-7-7-7-7-7- X2
A--5-5-5-5-5-5-5-5-7-7-7-7-7-7-7-7-8-8-8-8-3-3-3-3-5-5-5-5-5-5-5-5-
E------------------5-5-5-5-5-5-5-5-6-6-6-6-------------------------

Verso 2

Pasa el tiempo y no aprenderás orgulloso de ti te morirás
dedicado 100% a molestar el resto de tus días quieres pasar.

Aqui entra el cambio hacer PALM MUTE  en A


     D5                A5            A#5     C5         D5
e------------------------------------------------------------------
B------------------------------------------------------------------
G--7-7-7-7-7-7-7-7-------------------------5-5-5-5-7-7-7-7-7-7-7-7-
D--7-7-7-7-7-7-7-7-7-7-7-7-7-7-7-7-8-8-8-8-5-5-5-5-7-7-7-7-7-7-7-7- X2
A--5-5-5-5-5-5-5-5-7-7-7-7-7-7-7-7-8-8-8-8-3-3-3-3-5-5-5-5-5-5-5-5-
E------------------5-5-5-5-5-5-5-5-6-6-6-6-------------------------
                   p.m. p.m. p.m.

Cambio (Pre-coro)
No te das cuenta que mucho te ha de importar,
lo que piensan y viven los demás,
y tanto te has preocupado de juzgar, que tu vida vacía se ha de quedar.

Y el coro es igual que el Intro X4:
-------------------------------X4------------------------------
   D5       F5   E5   A#5    F5    E5   F5       F5   E5    C5   C#5
e------------------------------------------------------------------------
B------------------------------------------------------------------------
G--7-7-7-7-10-10-9-9---------10-10-9-9---------10-10-9-9-5-5-5-5-6-6-6-6-
D--7-7-7-7-10-10-9-9-8-8-8-8-10-10-9-9-3-3-3-3-10-10-9-9-5-5-5-5-6-6-6-6-
A--5-5-5-5-8 -8 -7-7-8-8-8-8-8 -8 -7-7-3-3-3-3-8 -8 -7-7-3-3-3-3-4-4-4-4-
E--------------------6-6-6-6-----------1-1-1-1---------------------------
---------------------------------------X4------------------------

Coro
Dime, yo no te creo, yo no te siento y nada me obliga a callar sin saber,
que hay tantas cosas, que las mata el tiempo,
haciendo que todo se olvide sin entender
acciones que atan, a la ignorancia, al odio vacio de existir sin porque,
es el peso que cargas de tu arrogancia,
que aplasta tu vida sin lograr comprender.


En esta parte es lo mismo que el verso 1 pero
hacer PALM MUTE CUANDO TOQUES LA NOTA DE A


     D5                A5            A#5     C5         D5
e------------------------------------------------------------------
B------------------------------------------------------------------
G--7-7-7-7-7-7-7-7-------------------------5-5-5-5-7-7-7-7-7-7-7-7-
D--7-7-7-7-7-7-7-7-7-7-7-7-7-7-7-7-8-8-8-8-5-5-5-5-7-7-7-7-7-7-7-7- X2
A--5-5-5-5-5-5-5-5-7-7-7-7-7-7-7-7-8-8-8-8-3-3-3-3-5-5-5-5-5-5-5-5-
E------------------5-5-5-5-5-5-5-5-6-6-6-6-------------------------
                   p.m. p.m. p.m.


eeeeeeeeeeeeeeeeeeeeeeeeeeeeeeeeeeeeeeeeeeeeeeeerrrrrrrrrr. x2


Para finalizar terminas el RIFF y al ultimo
rematas el D sin dejarlo vibrar

     D5                A5            A#5     C5         D5
e------------------------------------------------------------------
B------------------------------------------------------------------
G--7-7-7-7-7-7-7-7-------------------------5-5-5-5-7-7-7-7-7-7-7-7-
D--7-7-7-7-7-7-7-7-7-7-7-7-7-7-7-7-8-8-8-8-5-5-5-5-7-7-7-7-7-7-7-7-
A--5-5-5-5-5-5-5-5-7-7-7-7-7-7-7-7-8-8-8-8-3-3-3-3-5-5-5-5-5-5-5-5-
E------------------5-5-5-5-5-5-5-5-6-6-6-6-------------------------


Califiquenla!!!!
Califiquenla!!!!
Califiquenla!!!!
Dudas, aclaraciones sobre la rola cerebelo_8@

            
            
Suggest correction
Creating personal tab
Creating personal tab
You can edit any tab online and save it as your Personal.

You can edit, replace or remove any tab part or add personal notes – all changes will be seen only by you.

Personal tabs can be accessed anytime from any device, even offline.
Learn more »
Give kudos to tab author, rate the tab!
1 2 3 4 5
comments
print report bad tab
guest
Wanna post a correction for this tab? Suggest correction