Oops, an error
Loading. Please wait.

Mujer Niña Y Amiga tab

287 views 1 this week
no commentswrite comment
1 2 3 4 5
3 more votes to show rating
add to favorites
×
Save as Personal and add changes to this tab that will be seen only by you. Learn more ›
×
You can save this tab as Personal to edit and correct it or add notes. All changes will be seen only by you. Learn more »
launch autoscroll
font size
0
reset
how to read this tab
guitar tuner
edit
Autoscroll
slow
fast
+/-
esc
set tempo
stop
Intro: SIm - SOL - LA - RE - MIm - SIm - (SOL FA#7 SIm)

e|----------10-10-----10-10----------10-10------10-10---12-10-10-10-10--|
b|----------------------------------------------------------------------|
g|--9/11-11------11-11-------11/12-12-----12-12---------12-12-12-12-12--|
d|----------------------------------------------------------------------|
a|----------------------------------------------------------------------|
E|----------------------------------------------------------------------|

e|----9---7---5---7/9---7-----------------------------7-9-10/12---9-10--|
b|---------------------7---7-7/8p9-7-----------7-8-10-------------------|
g|--9---7---6---7-----7--------------9-7/6/7-9--------------------------|
d|----------------------------------------------------------------------|
a|----------------------------------------------------------------------|
E|----------------------------------------------------------------------|

e|--7-9-10---7h9h10-7-5--6----7--7-----7-----|
b|---------9-------------5---7-----7-----7---|
g|-----------------------6--7--------7-------|
d|-------------------------------------------|
a|-------------------------------------------|
E|-------------------------------------------|


 SIm               MIm         FA#7
    Dejame soñar contigo en esta noche
      SIm                 MIm
    quiero YO encender luceros en el cielo
     LA            RE
    para grabar tu nombre en cada estrella
      SOL             FA#7          SIm
    para gritar lo mucho que te quiero.


    SIm               MIm         FA#7
    Cuando llegue el día hallarte aquí a mi lado
      SIm                 MIm
    dejame soñarlo se que esto no es cierto
     LA            RE
    porque lo cierto  apena es un instante
      SOL           FA#7       SIm
    vivir de sueños es lo vedadero.

ESTRIBILLO:

    MIm                  SIm
    Dulce paloma de mi alma
       FA#7                SIm   SI7
    sueño que se hizo realidad
    MIm                   SIm
    mia por siempre solo mía
                  SOL FA#7 SIm   SI7
    mujer, niña y am........i....... ga.
    MIm                   SIm
    mia por siempre solo mía
                  SOL    FA#7     SIm
    mujer, niña y am......i........ ga.


    Son tantos recuerdos que llevo conmigo
    esas quietas tardes que ibamos al río
    para mirarnos sin decirnos nada
    para querernos con nuestra miradas.


    No hay amor mas grande que el que yo te he dado
    ni hay hombre que te ame como yo te amado
    yo soy tan tuyo como tu eres mía
    que ni la muerte habrá de separarnos.

ESTRIBILLO:

    Dulce paloma de mi alma
    sueño que se hizo realidad
    mia por siempre solo mía
    mujer, niña y amiga.
    mia por siempre solo mía
    mujer, niña y amiga.

            
            
Suggest correction
Creating personal tab
Creating personal tab
You can edit any tab online and save it as your Personal.

You can edit, replace or remove any tab part or add personal notes – all changes will be seen only by you.

Personal tabs can be accessed anytime from any device, even offline.
Learn more »
Give kudos to tab author, rate the tab!
1 2 3 4 5
comments
print report bad tab
guest
Wanna post a correction for this tab? Suggest correction