Oops, an error
Loading. Please wait.

Parque Cerrado chords

6 views 1 this week
no commentswrite comment
1 2 3 4 5
3 more votes to show rating
add to favorites
×
Save as Personal and add changes to this tab that will be seen only by you. Learn more ›
×
You can save this tab as Personal to edit and correct it or add notes. All changes will be seen only by you. Learn more »
launch autoscroll
font size
0
reset
transpose
0
reset
simplify chords
display chords
guitar tuner
edit
Autoscroll
slow
fast
+/-
esc
set tempo
stop
Strumming
There is no strumming pattern for this song yet. and get +5 IQ
Intro: [Cmaj7] x 4

Riff
e|-------10----------|-------10----------|-------10----------|
B|----------------10-|----------------10-|----------------10-|
G|-11-12----11-12----|-11-12----11-12----|-11-12----11-12----|
D|-------------------|-------------------|-------------------|
A|-------------------|-------------------|-------------------|
E|-------------------|-------------------|-------------------|
  [Em7]               [G]                 [Bm]

e|-12-12-12-12-10----|12-12-12-12-12-10----|
B|----------------12-|------------------12-|
G|-------------------|---------------------|
D|-------------------|---------------------|
A|-------------------|---------------------|
E|-------------------|---------------------|
  [C]                 [Cmaj7]


Em7                             G
ya fue, pensàbamos lo mismo los dos
                             Bm
despuès el rayo de la desiluciòn dejò

despojos
                     C
nuestra casa era un parque cerrado

Em7                              G
el parque de juegos (la misma ciudad)
                            Bm
llenò mis valijas de felicidad

miro los despojos nuestra casa
       C
era un parque cerrado


[Riff] x 2

[Cmaj7] x 4


[ se repite todo ]

            
            
Suggest correction
Creating personal tab
Creating personal tab
You can edit any tab online and save it as your Personal.

You can edit, replace or remove any tab part or add personal notes – all changes will be seen only by you.

Personal tabs can be accessed anytime from any device, even offline.
Learn more »
Give kudos to tab author, rate the tab!
1 2 3 4 5
comments
print report bad tab
guest
Wanna post a correction for this tab? Suggest correction