Oops, an error
Loading. Please wait.

Al Pentágono tab

by Vantroi
17 views 1 this week
no commentswrite comment
1 2 3 4 5
3 more votes to show rating
add to favorites
×
Save as Personal and add changes to this tab that will be seen only by you. Learn more ›
×
You can save this tab as Personal to edit and correct it or add notes. All changes will be seen only by you. Learn more »
launch autoscroll
font size
0
reset
how to read this tab
guitar tuner
edit
Autoscroll
slow
fast
+/-
esc
set tempo
stop
AL PENTAGONO
D  F6  C x2 /  A#   D  C x2  /  F   C  DALE FORMA OYENDO LA CANCION
 D   F6  C - D C  / A#  D  C  x2  /  F  C
LUEGO EMPIEZA ESTO KE VA CON UN PUNTEO
D  A#  F  C  Y DE IGUAL MANERA VA CON EL VERSO

2:----10-8------------------------------------
3:-7-------10-8----10-8-7--------------------
4:---------------8---------10----------------
5:-----------------------------8--8-10-8--10-12

2:----10-8------------------------------------
3:-7-------10-8----10-8-7--------------------
4:---------------8---------10----------------
5:-----------------------------8--8-10-8-8h108h10h10v
las ultimas partes de ambos punteos es opcional ya ke en
la canción solo desvanece pero creo keda bien

       D            A#             F        C
EN CADA LAGRIMA DERRAMADA EN CADA PUÑO LEVANTADO
       D            A#              F          C
EN CADA LUGAR ATRINCHERADO Y DONDE AUN QUEDA EL NAPALM
       D          A#          F         C
NACERÁ NACERÁ LA ESPERANZA KE DESESPERA
D         A#           F             C(AKI MACAHACANDO)
 Y SE ACABA Y SE ACABA MI PACIENCIA Y MIRO AL MUNDO

LUEGO DE NUEVO VIENE EL PUNTEO CON LA MISMA BASE DE ACORDES


2:----10-8------------------------------------
3:-7-------10-8----10-8-7--------------------
4:---------------8---------10----------------
5:-----------------------------8--8-10-8--10-12

2:----10-8------------------------------------
3:-7-------10-8----10-8-7--------------------
4:---------------8---------10----------------
5:-----------------------------8--8-10-8-8h108h10h10v


     D       A#               F         C
A LA MIERDA SU MISERO JORNAL COMIENZA EL ARTE DE
       D                     A#              F    C
CONSPIRAR, TU QUE YA ESCAPASTE DEL CERCO EN BARAGUA
D                         A#         F
ENSEÑA A FORMARME EN LA MILICIA, ENSEÑA A PERDERME
          C
EN LA METRALLA
D                          A#          F
ENSEÑALE AL MARINE A COMBATIR CON LA MENTE NO
C
 CON NIÑOS.
CAMBIO
D F  D F   D  F    C

PUNTEO CON BASE EN: D  A#  F  C
2:----10-8------------------------------------
3:-7-------10-8----10-8-7--------------------
4:---------------8---------10----------------
5:-----------------------------8--8-10-8--10-12
2:----10-8------------------------------------
3:-7-------10-8----10-8-7--------------------
4:---------------8---------10----------------
5:-----------------------------8--8-10-8-8h108h10h10v

Y LOS SIGUIENTES VERSOS SON IGUALES DONDE DICE:
          D                      A#
VERAS PENTAGONO UN DIA DARE SUS NOMBRES
          F                  C
YA QUE NO SON PRESUNTOS CRIMINALES
          D                              A#
SE SU ESTRATÉGIA ES TODO UN PLAN DE GUERRA
              F              C
HOY, PERO ESTAREMOS EN ELLA SIN PERDERLA
.... ES IGUAL PERO MAS LENTO

AHORA ACELERA
D -F   D-F   D-F   C

UNA VUELTA MAS CON
D  A#   F   C

LUEGO CALMA UN RITMO COMO REGGAE
EN ACORDES D Y C ALTERNANDO

LUEGO PUNTEA

3:--H14-14-14-14-12H14-9-H10---12h14-9h10
4-12-------------------------------------

3:--10-10-9-----10-10-12-10-9-7-9-10
4:----------10-----------------------

3:--14-14-14-14-14-14-14-14-9-10

bueno esta difícil ALGO POR ASI VA


william colbil tal vez no seas tu
recuerda que venció Vietnam
no podran hoy tus bvalas programadas
asi que detiene la guerra con tu guerra veras
entonces solo nos conduces a responder
con otra inteligencia

D F  D F   D  F    C

Base
D  A#   F   C

2:----10-8------------------------------------
3:-7-------10-8----10-8-7--------------------
4:---------------8---------10----------------
5:-----------------------------8--8-10-8--10-12

2:----10-8------------------------------------
3:-7-------10-8----10-8-7--------------------
4:---------------8---------10----------------
5:-----------------------------8--8-10-8-8h108h10h10v

luego D  A#   F   C x4

en las primeras dos va un solo
luego canta

cuentanos como tratabas al patriota, como
llenabas de acido sus rostros como riegan
el suelo de bacterias hoy, no se si sepan
que han matado al sol

?y sigue la misma base?

y enfrentate con fuerza a lo que es fuerte
prepara los obuses y la vida, correr para
vencer, vencer para tener un poco .. de paz

?un pekeño cmabio?

se arrastra de C/D
            D                     A#
ESTA ES MI TIERRA Y AKI SERA EL COMBATE
     F                   C
ESTA ES MI TIERRA AKI VOY A MORIR

ASI SE VA HASTA EL FINAL CON OTRO
SOLO PERO LA MSMA BASE.
BUENO YA KEDO UN POKO MAS LLENITA
ALGUIEN QUE MANDE LOS SOLOS
SALUDOS!!!

            
            
Suggest correction
Creating personal tab
Creating personal tab
You can edit any tab online and save it as your Personal.

You can edit, replace or remove any tab part or add personal notes – all changes will be seen only by you.

Personal tabs can be accessed anytime from any device, even offline.
Learn more »
Give kudos to tab author, rate the tab!
1 2 3 4 5
comments
print report bad tab
guest
Wanna post a correction for this tab? Suggest correction