Oops, an error
Loading. Please wait.

Flojos De Pantalón tab

version 1
version 1

Whole song

by Vantroi
94 views 1 this week
no commentswrite comment
1 2 3 4 5
3 more votes to show rating
add to favorites
×
Save as Personal and add changes to this tab that will be seen only by you. Learn more ›
×
You can save this tab as Personal to edit and correct it or add notes. All changes will be seen only by you. Learn more »
launch autoscroll
font size
0
reset
how to read this tab
guitar tuner
edit
Autoscroll
slow
fast
+/-
esc
set tempo
stop
Aki estA uNa mUy BueNA rola de VaNTrOi, espero ke les guste
atte:RAul BarrOn


Intro


--------------------------------------------------------------------------
--------------------------------------------------------------------------
---7---------7-------------------------7----------------------------7-----
---7---------7----------7------5-------7---------------7------5-----7-----
---5-4-5-4-0-5--4-5-4-0-7-4-5--5--2-4--5--8-7-5-8-7-5--7-4-5--5-2-4-5-----
------------------------5------3-----------------------5------3-----------


D          C#            B
Surge la escena en un salon 
 G            B
niñas en promocion
 G                B           A
momias poniendo precio ambiguedad
        D         C#            B
alguien va presumiendo distraiccion
  G             B    G             B         A
flojos de pantalon, lideres del diseño, novedad

      G             A           B
son la busa que inspira la ambicion
 G           A  B
sueños de libertad

-----------------------
-----------------------
-----------------------
-----------------------
--555--4--5--4/5--44---
-----------------------

 G         A        B
noches al pie del cañon
 G           A  B
fuerza de voluntad

-----------------------
-----------------------
-----------------------
-----------------------
--555--4--5--4/5--44---
-----------------------


-------------------------------------------
-------------------------------------------
---7---------7-------------------------7---
---7---------7----------7------5-------7---
---5-4-5-4-0-5--4-5-4-0-7-4-5--5--2-4--5---
------------------------5------3-----------

D        C#         B
es una tribu de ficción
 G            B
sindrome de bufor
 G             B          A
heroes de novedista de reje
     D          C#          B
provocando desprecio y reaccion
  G             B
flujo en su condicion
  G            B           A
dueños del desparpajo freneci

      G             A          B
son la busa que inspira la ambicion
 G           A  B
sueños de libertad

-----------------------
-----------------------
-----------------------
-----------------------
--555--4--5--4/5--44---
-----------------------

 G         A        B
noches al pie del cañon
 G           A  B
fuerza de voluntad

-----------------------
-----------------------
-----------------------
-----------------------
--555--4--5--4/5--44---
-----------------------


----------------------------------------------------------------------------
----------------------------------------------------------------------------
---7---------7-------------------------7------------------------------------
---7---------7----------7------5-------7---------------7------5------4------
---5-4-5-4-0-5--4-5-4-0-7-4-5--5--2-4--5--8-7-5-8-7-5--7-4-5--5-2-4--4------
------------------------5------3-----------------------5------3------2------

'ya despues termina con un reKiNTo'


EsPEro ke les GUstE 
ARRIBA EL pUnk '
SAluDoS AL RegLa,giMmi,mOnOsONso,GIoGui, y a la AnItA;o)
Si me KiereN ContaCtAr, mI maiL ES el_mas_kabron@
'the PuNK isN´t DeAd' ADIos RAZA

            
            
Suggest correction
Creating personal tab
Creating personal tab
You can edit any tab online and save it as your Personal.

You can edit, replace or remove any tab part or add personal notes – all changes will be seen only by you.

Personal tabs can be accessed anytime from any device, even offline.
Learn more »
Give kudos to tab author, rate the tab!
1 2 3 4 5
comments
print report bad tab
guest
Wanna post a correction for this tab? Suggest correction