Oops, an error
Loading. Please wait.

El Señor tab

version 1
version 1

Whole song

31 views 1 this week
no commentswrite comment
1 2 3 4 5
3 more votes to show rating
add to favorites
×
Save as Personal and add changes to this tab that will be seen only by you. Learn more ›
×
You can save this tab as Personal to edit and correct it or add notes. All changes will be seen only by you. Learn more »
launch autoscroll
font size
0
reset
how to read this tab
guitar tuner
edit
Autoscroll
slow
fast
+/-
esc
set tempo
stop
la primera transcripción en sí está muy bien
solo le arreglo los 2 solos que estaban mal


E

Am         G       F
La última joda la paga el ?Señor?
Am         G          F
que le divierten las penas ajenas de hoy.
Am         G         F
La última moda la impone el ?Señor?
Am       G        F
marcándome la tendencia demencia de hoy.

Am        G           C        D
El tiene todo lo que hoy precisás
Am       G         F
y los infantes se parten el alma por más.
Am        G        C           D
El te cautiva mostrando a su dios
Am            G       F                E
que no es el tuyo pero juega para los dos.


Am         G       F
La última vida la pide el ?Señor?
Am       G       F
y te perdona lo malo de tu corazón.
Am         G       F
La última miga la roba el ?Señor?
Am     G        F
alimentando su rabia y su falta de amor.

Am        G        C       D
Esa clientela de ciega se da
Am       G         F
y va tragando la mierda de toda cuidad.
Am      G         C        D
Ese aparato te invita a morir
Am      G         F                  E
y te reduce a lo simple de nunca sufrir.


       F
Y es así:
          C
o te rebelás,
           F
o te consumís,
             C                   F
cerrando los ojos no sirve aplaudir.
              C              F
La hora del miedo parece llegar
             E
y aquí no vale pensar...

C (x8)
C-A#-Dm-F x4

e|---------------------------------------------
B|---------------------------------------------
G|---------------------------------------------
D|----------------7-5--------------------------
A|--7-8---7-8-5~-----8-7-5---7-8---7-8-5~--/8~-
E|-8---6~-------------------8---6~-------------

e|-----------------------------------------------|
B|-----------------------------------------------|
G|-----------------------------------------------|
D|------------------7-5--------------------------|
A|--7-8---7-8-5~-7-8---8-7-5---7-8---7-8-5~--/8~-|
E|-8---6~---------------------8---6~-------------|


Am         (G)      (F)
Y cuándo quieras soñar
        Am (G)      (F)
sólo habrá   pesadillas,
Am         (G)     (F)
o cuando quieras volar
      Am  (G)   (F)      (PAUSA)
quedarás   de rodillas.

Am     G        C       D
Ese camino te exige mentir
Am      G          F
o te reduce a lo triste de sobrevivir.
Am      G       C          D
Esa montaña se va a derrumbar
Am      G         F                   E
encima de todo aquél que te quiera dañar.

       F
Y es así:
          C
o te rebelás,
           F
o te consumís,
             C                   F
cerrando los ojos no sirve aplaudir.
              C              F
La hora del miedo parece llegar
             E
y aquí no vale pensar...

C-A#-Dm-F x7 Dm

e|---------------------------------------------
B|---------------------------------------------
G|---------------------------------------------
D|----------------7-5--------------------------
A|--7-8---7-8-5~-----8-7-5---7-8---7-8-5~--/8~-
E|-8---6~-------------------8---6~-------------

e|-----------------------------------------------
B|-----------------------------------------------
G|-----------------------------------------------
D|------------------7-5--------------------------
A|--7-8---7-8-5~-7-8---8-7-5---7-8---7-8-5~--/8~-
E|-8---6~---------------------8---6~-------------

e|---------------------------------------------
B|---------------------------------------------
G|---------------------------------------------
D|----------------7-5--------------------------
A|--7-8---7-8-5~-----8-7-5---7-8---7-8-5~--/8~-
E|-8---6~-------------------8---6~-------------

e|-----------------------------------------|
B|-----------------------------------------|
G|-----------------------------------------|
D|----------------7-5----------------------|
A|--7-8---7-8-5~-----8-7-5---7-8---7-8-5~~-|
E|-8---6~-------------------8---6~---------|


cualkier cosa me mandan mail a lalos_boca20@
Aguante el Rock n' roll y nada mas,
es algo que los chetos no pueden entender
Suggest correction
Creating personal tab
Creating personal tab
You can edit any tab online and save it as your Personal.

You can edit, replace or remove any tab part or add personal notes – all changes will be seen only by you.

Personal tabs can be accessed anytime from any device, even offline.
Learn more »
Give kudos to tab author, rate the tab!
1 2 3 4 5
comments
print report bad tab
guest
Wanna post a correction for this tab? Suggest correction