Oops, an error
Loading. Please wait.

Para No Verme Más tab

version 1
version 1

Whole song

254 views 1 this week
no commentswrite comment
1 2 3 4 5
3 more votes to show rating
add to favorites
×
Save as Personal and add changes to this tab that will be seen only by you. Learn more ›
×
You can save this tab as Personal to edit and correct it or add notes. All changes will be seen only by you. Learn more »
launch autoscroll
font size
0
reset
how to read this tab
guitar tuner
edit
Autoscroll
slow
fast
+/-
esc
set tempo
stop
Intro:

    G#m      A#m       B   G#m      A#m       B
E/-----------------------------------------------
B/--------------------------------------------7--
G/--------4--------6---8---------4--------8---8--
D/------6--------8-----9-------6--------8-----9--
A/----6--------8-------9-----6--------8----------
E/--4--------6---------7---4--------6---------7-


IMPORTANTE: al MI ( E ), de las estrofas tokarlo en el 7mo
traste -779997-
y en el estribillo tokenlo normal. -022100-


.el RIFF 1 es simple, como un adorno y se toka una vez x
las estrofas.


RIFF 1:
e/---------------------------------------------------
B/--9---7--------------------------------------------
G/---------8------4------6------8----9---8-----------
D/-------------------------------------------11---9--
A/---------------------------------------------------
E/---------------------------------------------------

.(Las estrofas son arpegiadas)

G#m      A#m          B     G#m      A#m       B
Porque diré que me escondo, si nadie me quiere ver?
G#m       A#m      B         E        B          F#
¿Será que no me preciso y de paso me aviso, para ya no
  G#m
correr?                    RIFF1/--------------------
G#m      A#m         B      G#m        A#m     B
Me fui pateando las piedras, con ganas de molestar..
-----------------------------------------------------
G#m       A#m          B              E         B
y no encontré ni un segundo, para explicarle al mundo
----------------------/
        F#       G#m
que lo quiero matar...

(ahora acompaña cn este arpegio)


       E                 B                F#(x2)
E/------------0---------------2---------------2-------
B/----------0---0---0-------4---4---4-----------2---2-
G/--------1-------1-------4-------4---------3-----3---
D/------2---------------4-----------------4-----------
A/----2---------------2-----------------4-------------
E/--0---------------------------------2---------------


E                   B                        F#
y mi cabeza se me enfrenta en una noche de solo pensar..
E                   B                          F#
y la alegría se me escapa y la agonía vuelve a dominar..
E                      B                         F#
el corazón de algún sufrido me acompaña hasta la Terminal
E              B        F#
y me iré, para no verme más...


.(ahora arpegien cn los acordes de la 1er parte:
G#m  A#m  B  E  B  F#  G#m


Mientras el violen hace esto:

E/-------------------------------
B/----------------9---7----------
G/--8----8----8-----------6----8-


                 RIFF1/-----------------------
G#m      A#m      B      G#m       A#m     B
Estoy buscando refugio, en manos de una pared
---------------------------------------------------
G#m         A#m       B              E         B
que ni siquiera me escucha y yo, fingiendo mi lucha
----------------------/
        F#       G#m
engañándome otra vez..

                  RIFF1/---------------------
Ya nada aquí me divierte, como solía ocurrir..
-----------------------------------------------
voy persiguiendo mi risa, ella se fuga deprisa
-----------------/
burlándose de mi.


E                   B                        F#
y mi cabeza se me enfrenta en una noche de solo pensar..
E                   B                          F#
y la alegría se me escapa y la agonía vuelve a dominar..
E                      B                         F#
el corazón de algún sufrido me acompaña hasta la Terminal
E              B        F#
y me iré, para no verme más...

Solo:

    B    F#   G#m   F#  E            B      F#
E/---------------------------------------------------------
B/---------------------------------------------------------
G/--8---4-6--3-4--6-----------4--------4---6---------------
D/------------------4---2-1-2----2-1-2-------4----2-1-2-1-2
A/---------------------------------------------------------
E/---------------------------------------------------------

/-------
/-4-6---
/-----4-
/-------
/-------
/-------

se toka lo mismo 2 veces y la 3era va cn la trompeta

trompeta:

E/--12--11--9--------------------------------------
B/------------12--11-12-11--9-7---5-4--7-4---------
G/------------------------------------------6--3---
D/-----------------------------------------------4-
A/-------------------------------------------------
E/-------------------------------------------------

(Hasta ahí va,junto cn el punteo. Ahora la trompeta termina
haciendo este puente).

/---------------
/---------------
/----3--4--6--4-
/--6------------
/---------------
/---------------

E                   B                        F#
y mi cabeza se me enfrenta en una noche de solo pensar..
E                   B                          F#
y la alegría se me escapa y la agonía vuelve a dominar..
E                      B                         F#
el corazón de algún sufrido me acompaña hasta la Terminal
E              B        F#
y me iré, para no verme más...

E              B        F#
y me iré, para no verme más...

E              B              F#
y me iré, para no..... verme máas...


tiene violin el tema, tipo en el limbo
ta mui bueno.

Salu2
Mza.

            
            
Suggest correction
Creating personal tab
Creating personal tab
You can edit any tab online and save it as your Personal.

You can edit, replace or remove any tab part or add personal notes – all changes will be seen only by you.

Personal tabs can be accessed anytime from any device, even offline.
Learn more »
Give kudos to tab author, rate the tab!
1 2 3 4 5
comments
print report bad tab
guest
Wanna post a correction for this tab? Suggest correction