Oops, an error
Loading. Please wait.

Para No Verme Más chords

version 3
version 3

Whole song

133 views 1 this week
no commentswrite comment
1 2 3 4 5
3 more votes to show rating
add to favorites
×
Save as Personal and add changes to this tab that will be seen only by you. Learn more ›
×
You can save this tab as Personal to edit and correct it or add notes. All changes will be seen only by you. Learn more »
launch autoscroll
font size
0
reset
transpose
0
reset
display chords
guitar tuner
edit
Autoscroll
slow
fast
+/-
esc
set tempo
stop
Strumming
There is no strumming pattern for this song yet. and get +5 IQ
Bueno aca les traigo una transcripsion
bien hecha xq estube mirando y las demas esta como el...

intro:
esto va en base a Lam Sol Do
---------------- ---------------0
-----1-------0-- -----1-------0--
---2---2---0---0 ---2---2---0----
---------------- ----------------
-0-------2-----3 -0-------2-----3
---------------- ----------------

y el verso es muy parecido vean:

porq dire q me escondo?

----------------------0-------
-----1-------0------1----1---1
---2---2---0------0--------0--
------------------------------
-0-------2-----3--------------
------------------------------

si nadie me quiere ver...

----------------------0-------
-----1-------0------1----1---1
---2---2---0------0--------0--
------------------------------
-0-------2-----3--------------
------------------------------

sera q no me preciso y de paso me aviso
para ya no correr

----------------------------
-----1-------0-----1-------1
---2---2---0-----0---0---2--
----------------------------
-0-------2-----3-------3----
----------------------------

----------------------0------
-----1-------0------1----1--1
---0---0---0------2--------2-
-----------------------------
-3-------2-----0-------------
-----------------------------

y bueno ese es el circulo q repite en todo el verso
y cambia en el estribillo así:

Estribillo:
y mi cabeza se me
(F)
-------1--------
-----1---1---1--
---2-------2---2
----------------
-3--------------
----------------
enfrenta en una noche de so...
(C)
-------0--------
-----1---1---1--
---0-------0---0
----------------
-3--------------
----------------
...lo pensaaaaar
(G)
-------1-------- -------1--------
-----0---0---0-- -----0---0---0--
---0-------0---0 ---0-------0---0
---------------- ----------------
-2-------------- -2--------------
---------------- ----------------

ese es el circulo de el estribillo lo repite
unas tres veces...

y Bueno eso sería lo necesario para q lo armen
y lo disfruten

Aguante La vela...

SALUTE!
Suggest correction
Creating personal tab
Creating personal tab
You can edit any tab online and save it as your Personal.

You can edit, replace or remove any tab part or add personal notes – all changes will be seen only by you.

Personal tabs can be accessed anytime from any device, even offline.
Learn more »
Give kudos to tab author, rate the tab!
1 2 3 4 5
comments
print report bad tab
guest
Wanna post a correction for this tab? Suggest correction