Oops, an error
Loading. Please wait.

Para No Verme Más tab

version 3
version 3

Whole song

658 views 6 this week
no commentswrite comment
1 2 3 4 5
x 3
add to favorites
×
Save as Personal and add changes to this tab that will be seen only by you. Learn more ›
×
You can save this tab as Personal to edit and correct it or add notes. All changes will be seen only by you. Learn more »
launch autoscroll
font size
0
reset
how to read this tab
guitar tuner
edit
Autoscroll
slow
fast
+/-
esc
set tempo
stop
Intro

     Am         G         C
 e------------------------------|
 B--------1---------------1-----|
 G------2----------0------0-----|
 D----2----------0--------2-----|
 A--0---------------------3-----|
 E-------------2----------------|

    Am         G         C
 e------------------------0-----|
 B--------1---------------1-----|
 G------2----------0------0-----|
 D----2----------0--------------|
 A--0---------------------3-----|
 E-------------2----------------|

"Porque dire que me escondo , si nadie me quiere ver"


   Am            G          C
 e------------------------------------|
 B--------1------------------1--------|
 G------2----------0-------0---0---0---| x2
 D----2----------0-------2-------2----|
 A--0----------2-------3--------------|
 E------------------------------------|


"Sera que no me preciso , y de paso me aviso para ya no correr"

    Am          G       C         F        C       G         Am
 e--------------------------------------------------------------0------|
 B-----1------------------1----------1-------1--------------------1----|
 G----2---------0-------0---------2--------0---------0--------2-----0--|
 D---2---------0-------2--------3---------2---------0--------2---------|
 A--0---------2-------3------------------3---------2--------0----------|
 E---------------------------------------------------------------------|


"Me fui pateando las piedras , con  ganas de molestar"

   Am            G          C
 e------------------------------------|
 B--------1------------------1--------|
 G------2----------0-------0---0---0---|
 D----2----------0-------2-------2----|   x2
 A--0----------2-------3--------------|
 E------------------------------------|


"Y no encontre ni un segundo para explicarle al mundo
que lo quiero matar"

    Am          G       C         F        C       G         Am
 e--------------------------------------------------------------0------|
 B-----1------------------1----------1-------1--------------------1----|
 G----2---------0-------0---------2--------0---------0--------2-----0--|
 D---2---------0-------2--------3---------2---------0--------2---------|
 A--0---------2-------3------------------3---------2--------0----------|
 E---------------------------------------------------------------------|


" Y mi cabeza se me enfrenta en una noche de solo pensaar ,
 Y la alegria se me escapa y la agonia vuelve a dominar
El corazón de algún sufrido me acompaña hasta la terminaal"
         F                 C                 G
 e-----------1------------------------------------------------|
 B-------1-----1----------------1--------------------2---------|
 G-----2-- 2-----2---------0-------0---0---------0-----0---0-------|
 d---3-------------0-----2---2-------2---------0---0-----0------------| x3
 A---------------------3-----------------------------------------|
 E-------------------------------------------3-----------------|


"Y me ire para no verme mas"

     F                C                G
 e----------0-------------------------------------|
 B--------1---1--1---------1----------------2------|
 G------2-------2--------0---0--0---------0--------|
 D----3----------------2-------2--------0----------|
 A-------------------3----------------------------|
 E------------------------------------3------------|


ESTA PARTE VA ARRIBA DE LA TROMPETA ...
LA PUSE PORQUE NO ESTA EN NINGUN LADO LA SAQUE A OÍDO

e-------------------------------------------------------------------0----
b--1----0---3----3---5------5-----6-----6--5----5-----3----0--1---------
g--2--2-----0--0-----0---0-----0--0---0----0--0---0---0--0----2-2-------
d-----------------------------------------------------------------2-----  x2
a--0--------2--------3------------5--------3----------2-------0---------
E-----------------------------------------------------------------------


Estoy buscando refugio , en manos de una pared....

    Am            G          C
 e------------------------------------|
 B--------1------------------1--------|
 G------2----------0-------0---0---0---| x2
 D----2----------0-------2-------2----|
 A--0----------2-------3--------------|
 E------------------------------------|

Q nisiquiera me escucha y yo fingiendo mi lucha engañandome otra vez

    Am          G       C         F        C       G         Am
 e--------------------------------------------------------------0------|
 B-----1------------------1----------1-------1--------------------1----|
 G----2---------0-------0---------2--------0---------0--------2-----0--|
 D---2---------0-------2--------3---------2---------0--------2---------|
 A--0---------2-------3------------------3---------2--------0----------|
 E---------------------------------------------------------------------|

Ya nada aqui me divierte , como solia ocurrir

    Am            G          C
 e------------------------------------|
 B--------1------------------1--------|
 G------2----------0-------0---0---0---|
 D----2----------0-------2-------2----|  x2
 A--0----------2-------3--------------|
 E------------------------------------|

Voy persiguiendo mi risa y ya fuga de prisa burlandose de mi

    Am          G       C         F        C       G         Am
 e--------------------------------------------------------------0------|
 B-----1------------------1----------1-------1--------------------1----|
 G----2---------0-------0---------2--------0---------0--------2-----0--|
 D---2---------0-------2--------3---------2---------0--------2---------|
 A--0---------2-------3------------------3---------2--------0----------|
 E---------------------------------------------------------------------|

" Y mi cabeza se me enfrenta en una noche de solo pensaar ,
 Y la alegria se me escapa y la agonia vuelve a dominar
El corazón de algún sufrido me acompaña hasta la terminaal"

         F                 C                 G
 e-----------1------------------------------------------------|
 B-------1-----1----------------1--------------------2---------|
 G-----2-- 2-----2---------0-------0---0---------0-----0---0-------|
 d---3-------------0-----2---2-------2---------0---0-----0------------| x3
 A---------------------3-----------------------------------------|
 E-------------------------------------------3-----------------|

Y me ire para no verme mas x3


     F                C                G
 e----------0-------------------------------------|
 B--------1---1--1---------1----------------2------|
 G------2-------2--------0---0--0---------0--------|
 D----3----------------2-------2--------0----------|x3
 A-------------------3----------------------------|
 E------------------------------------3------------|

aca empieza rasguido .. G

Solo en base de C G Am G F C G X2

F                      C                   G
y mi cabeza se me enfrenta en una noche de solo pensar..
F                        C                 G
y la alegría se me escapa y la agonía vuelve a dominar..
F                        C                  G
El corazón de algún sufrido me acompaña hasta la Terminal
F                 C
y me iré, para no
     G
Verme más... X3

DUDAS , MAIL juancruzcastellini@

            
            
Suggest correction
Creating personal tab
Creating personal tab
You can edit any tab online and save it as your Personal.

You can edit, replace or remove any tab part or add personal notes – all changes will be seen only by you.

Personal tabs can be accessed anytime from any device, even offline.
Learn more »
Give kudos to tab author, rate the tab!
1 2 3 4 5
comments
print report bad tab
guest
Wanna post a correction for this tab? Suggest correction