Oops, an error
Loading. Please wait.

Alegre Depresión tab

version 2
version 2

Whole song

34 views 1 this week
no commentswrite comment
1 2 3 4 5
3 more votes to show rating
add to favorites
×
Save as Personal and add changes to this tab that will be seen only by you. Learn more ›
×
You can save this tab as Personal to edit and correct it or add notes. All changes will be seen only by you. Learn more »
launch autoscroll
font size
0
reset
how to read this tab
guitar tuner
edit
Autoscroll
slow
fast
+/-
esc
set tempo
stop
INTRO: variaciones en el acorde D


   G          A  harm..... D    A   B  harm.....
E|----------------------------------------------|
B|----------------------------------------------|
G|----------------(9)----7777--------(9)-(9)----|
D|-555555-5/7--(9)---(9)-7777-777/9---------(9)-|
A|-555555-5/7------------5555-777/9-------------|
E|-333333-3/5-----------------555/7-------------|

   G          A  harm..... F#     B  vib.. 
E|------------------------------------------|
B|------------------------------------------|
G|----------------(9)-----------4----7-7----|
D|-555555-5/7--(9)---(9)-444444-4-----------|
A|-555555-5/7------------444444-2-----------|
E|-333333-3/5------------222222-------------|

   G          A  harm..... D    A   B  harm.....
E|----------------------------------------------|
B|----------------------------------------------|
G|----------------(9)----7777--------(9)-(9)----|
D|-555555-5/7--(9)---(9)-7777-777/9---------(9)-|
A|-555555-5/7------------5555-777/9-------------|
E|-333333-3/5-----------------555/7-------------|

   G          A  harm..... F#     B      1/4
E|------------------------------------------|
B|------------------------------------------|
G|----------------(9)-----------4----7p6b---|
D|-555555-5/7--(9)---(9)-444444-4-----------|
A|-555555-5/7------------444444-2-----------|
E|-333333-3/5------------222222-------------|


Estoy tratando de encontrar aquel camino junto al mar
Estoy buscando la harmonía que me haga sentir bien

Hoy quiero respirar soñar, sentirme libre una vez más 
 
   G          A    F#
E|------------------------|
B|------------------------|
G|------------------------|
D|-5555555--7777777-------|
A|-5555555--7777777-------|
E|-3333333--5555555-------|


Tan solo busco una mirada que me pueda rescatar, 
Una sonrisa que me envuelva 
y que me ayude a sonreir,

me saque de una vez del hueco y que me lleve a otro
lugar.
   G          A    F#
E|------------------------|
B|------------------------|
G|------------------------|
D|-5555555--7777/444------|
A|-5555555--7777/444------|
E|-3333333--5555/222------|

Donde el tiempo este demás,
donde te pueda olvidar,
donde te pueda enterrar
borrar mi estupida ansiedad

Estoy buscando y no la encuentro
y sin embargo sé que está
en algun sitio esa mirada que me pueda rescatar
me saque de una vez del hueco y que me lleve a otro
lugar.

uhhhh uh uh..........(X3)
   D     A    B      F#
E|--------------------------|
B|--------------------------|
G|-77777------444444--------|
D|-77777-7777-444444-4444---|
A|-55555-7777-222222-4444---|
E|-------5555--------2222---|

Donde el tiempo este demás,
donde te pueda olvidar,
donde te pueda enterrar
borrar mi estupida ansiedad

uhhhh uh uh..........(repetir varias veces)
   D     A    B      F#
E|--------------------------|
B|--------------------------|
G|-77777------444444--------|
D|-77777-7777-444444-4444---|
A|-55555-7777-222222-4444---|
E|-------5555--------2222---| (finalmente haces esto
mismo pero en un tono más alto)

            
            
Suggest correction
Creating personal tab
Creating personal tab
You can edit any tab online and save it as your Personal.

You can edit, replace or remove any tab part or add personal notes – all changes will be seen only by you.

Personal tabs can be accessed anytime from any device, even offline.
Learn more »
Give kudos to tab author, rate the tab!
1 2 3 4 5
comments
print report bad tab
guest
Wanna post a correction for this tab? Suggest correction