Oops, an error
Loading. Please wait.

No Puedo Estar Sin Tí tab

85 views 1 this week
no commentswrite comment
1 2 3 4 5
2 more votes to show rating
add to favorites
×
Save as Personal and add changes to this tab that will be seen only by you. Learn more ›
×
You can save this tab as Personal to edit and correct it or add notes. All changes will be seen only by you. Learn more »
launch autoscroll
font size
0
reset
how to read this tab
guitar tuner
edit
Autoscroll
slow
fast
+/-
esc
set tempo
stop
Amigos:
Aqui les mando el tab de esta cancion que es increible.
El tab esta recontra completo espero les sirva!
Asi la toco con mi grupo.

Arriba los Verde70!
Y TODOS los grupos ECUATORIANOS!

Nomenclatura
============
5h7 Hammer
7p5 Pull off
7b9 Bend
9r7 Release
^t  Tapping (right hand)
AH  Artificial Harmonic


INTRO (2veces)
        Am          F              G              Em
e|--------------------------------------------------------||
B|-------1p0----------------------------0-----------------||
G|-----2-----2---------0-------------0---2p0---0-------0--||Guitarra1
D|---2---------2------3------------0---------0-------2----||
A|-0----------------3------------------------------2------||
E|----------------1--------------3---------------0--------||

La 1era guitarra sigue igual y entra la 2da guitarra haciendo un tappin'

INTRO2 (2veces)
        Am          F                 G            Em
e|--------------------------------------------------------------||
B|-----1p0---------------------------0--------------------------||
G|----2---2------0------------------0-2p0-0----0----------------||Guitarra1
D|---2-----2----3------------------0-----0----2-----------------||
A|--0----------3-----------------------------2------------------||
E|------------1------------------3----------0-------------------||

e|-------------------------------------------------------------||
B|---------------10--13-13-13-13---------------8--12-12-12-12--||
G|---------------10--14-14-14-14---------------9--12-12-12-12--||Guitarra2
D|-------------------------------------------------------------||
A|-------------------------------------------------------------||
E|------------------------------------------------------------ ||
                     ^t ^t ^t ^t                  ^t ^t ^t ^t

(Acordes usados Guitarra ritmica)
     Am    F      G     Em*
e|---0-----1------3-----3----||
B|---1-----1------3-----0----||
G|---2-----2------0-----0----|| 2x
D|---2-----3------0-----2----||
A|---0-----3------2-----2----||
E|---------1------3-----0----||

VERSE1
(Parece que soy vulnerable a los malos momentos..)
INTRO2 (1vez)

VERSE2 (Mismos acordes)
(Parece que tengo una debilidad por tu labios..)
INTRO2 (1vez)

(Acordes usados Pre-Coro)
     F     Dm     G     Em    Am
e|---------5-----------------------||
B|---------6-----------------------||
G|---2-----7------4-----0-----5----||
D|---3-----7------5-----2-----7----||
A|---3-----5------5-----2-----7----||
E|---1------------3-----0-----5----||

PRE-CORO
(Distorsion)

   F             Dm           G
Y yo que me daba aires de solitario
         Em                  F
me di cuenta que perdi el control
           Dm             G
y en mi cuarto tu fotografia
     Em                 F    F  G-Am
solo me quedan sabanas frias

CORO (4 veces)
      F   F    C   C     G   G   Am  Am
e|--x-1-x-1--x-3-x-3---x-3-x-3--x-5-x-5----||
B|--x-1-x-1--x-5-x-5---x-3-x-3--x-5-x-5----||
G|--x-2-x-2--x-5-x-5---x-4-x-4--x-5-x-5----||Guitarra1
D|--x-3-x-3--x-5-x-5---x-5-x-5--x-7-x-7----||
A|--x-3-x-3--x-3-x-3---x-5-x-5--x-7-x-7----||
E|--x-1-x-1------------x-3-x-3--x-5-x-5----||

G|------------------5----------------5-----||
D|-----5-7p5--7-5-7-------5p7--7--5-7-7----||Guitarra2
A|----------7----------------7-------------||

INTRO2 (2veces)

VERSE3 (Mismos acordes)
(Parece que me acostumbre a tus manos en las mias...)
INTRO2 (1vez)

VERSE4 (Mismos acordes)
(Parece que mi cuerpo se ha encadenado a tu cuerpo..)
INTRO2 (1vez)

PRE-CORO
(Distorsion)

   F             Dm           G
Y yo que tenia la situacion controlada
         Em                  F
me di cuenta que ya no es asi
           Dm             G
porque todo se fue de mis manos
     Em                 F    F  G-C (sube tono y medio)
solo tengo este frio en lo labios

CORO2

      Ab  Ab   Eb  Eb    Bb  Bb   Cm  Cm
e|--x-4-x-4--x-6-x-6---x-6-x-6--x-3-x-3----||
B|--x-4-x-4--x-8-x-8---x-6-x-6--x-4-x-4----||
G|--x-5-x-5--x-8-x-8---x-7-x-7--x-5-x-5----||Guitarra1
D|--x-6-x-6--x-8-x-8---x-8-x-8--x-5-x-5----||
A|--x-6-x-6--x-6-x-6---x-8-x-8--x-3-x-3----||
E|--x-4-x-4------------x-6-x-6-------------||

B|-------------------4----------------4----||
G|-----3-5p3--5-3-5-3-----3-5p3-5--3-5-5---||Guitarra2
D|----------5------------------5-----------||

La cuarta vez solo llega hasta Bb y baja de tono de nuevo

      Ab  Ab   Eb  Eb    Bb  Bb  ---]  LAm
e|--x-4-x-4--x-6-x-6---x-6-x-6-------------||
B|--x-4-x-4--x-8-x-8---x-6-x-6-------------||
G|--x-5-x-5--x-8-x-8---x-7-x-7-------------||Guitarra1
D|--x-6-x-6--x-8-x-8---x-8-x-8-------------||
A|--x-6-x-6--x-6-x-6---x-8-x-8-------------||
E|--x-4-x-4------------x-6-x-6-------------||

B|-------------------4---------------------||
G|-----3-5p3--5-3-5-3-----3-5p3------------||Guitarra2
D|----------5------------------5-----------||

Empieza el solo y la 2da guitarra toca los sgtes acordes:
Am - F - C - G

SOLO
          Am           F          C          G
e|--------------------------------------------------------------||
B|----------------------------------------------[AH]---5-8p5----||
G|---5-7-7b9-------5-----------------------5-7b9-7b9---------7--||
D|-----------7-5-7---7-5---5-7p6h7p5---5-7----------------------||
A|-----------------------7-----------7--------------------------||
E|--------------------------------------------------------------||

          Am            F                C              G
e|-------------------------------------------------------------------||
B|------------------[AH]----------8p5-7p5---5------------------------||
G|---7b9r7p5---5-7--7b9r7p5-----7---------7---7p5---5-5p4------------||
D|-----------7--------------7---------------------7-------5---5/7\5--||
A|----------------------------------------------------------7--------||
E|-------------------------------------------------------------------||

             Am                F
e|-----13p12---13p12----13p12----13/15-15~-||
B|-/13-------13-------13-------13----------||
G|-----------------------------------------||
D|-----------------------------------------||
A|-----------------------------------------||
E|-----------------------------------------||

          C                G
e|------13p12------------------------------||
B|---13-------13---------------------------||
G|---------------12\10-10\9-9\7-7\5-5h7-5--||
D|-----------------------------------------||
A|-----------------------------------------||
E|-----------------------------------------||

          Am               F                C              G
e|-----------------------------5-5p8-5---------------------------------||
B|---8-7p6p5-8-7p6p5-8-7p6p5-8----------8p5-7p5---5--------------------||
G|----------------------------------------------7---7b9-9r7p5---5------||
D|------------------------------------------------------------7---7----||
A|---------------------------------------------------------------------||
E|---------------------------------------------------------------------||

BRIDGE
Mismo acordes de las estrofas pero tocadas asi:

          Am            F            G        Em         Em
e|----------8------------5----------7----||--------7-|----------||
B|------10----10------6----------8----8--||-----8----|------0---||
G|-----9--9----------5-5--------7-7------||----9-9---|-----0----||
D|---10-------------7---------9----------||----------|----2-----||
A|---------------------------------------||--7-------|---2------||
E|---------------------------------------||----------|--0-------||
                                           1era vez    2da vez (y sube de tono)

       Cm              Ab          Bb                 Gm           Gm
e|-----------11------------8-------------10-----||----------10-|---------||
B|------13------13------9-----------11------11--||------11-----|------3--||
G|----12--12-----------8-8--------10--10--------||----12--12---|-----3---||
D|--13--------------10---------12---------------||-------------|----5----||
A|----------------------------------------------||-10----------|---5-----||
E|----------------------------------------------||-------------|--3------||
                                                     1era vez     2da vez

CORO2
Igual que antes en la cuarta vez llega hasta Bb y luego vine el OUTRO


OUTRO (4x)

        Cm            Ab
Me acostumbraste a tu cuerpo
        Bb            Gm
Me acostumbraste a tu corazon..
        Cm            Ab             Bb          Gm
Me encadenaste al ritmo de tu cintura.......... amor

      Cm         Ab         Bb         Gm
e|-------------------------------------------------||\
B|-------------------------------------------------|| \
G|-------------------------------------------------||  \
D|----------------1---------------------3----------||
A|--3-3p1-3-3p1-3---------5-5p3-5-5p3-5---5p3-1----|| ESTO SE TOCA 4 VECES:
E|-------------------------------------------------|| - 2 veces se escucha
                                                      al fondo mientras
      Cm          Ab          Bb         Gm           sigue LA letra
e|-------------------------------------------------|| - Despúes va 2 veces
B|-------------------------------------------------||   solo instrumental
G|-------------------------------------------------||
D|----------------1-----------5---3----------------||  /
A|--3-3p1-3-3p1-3---3p1---------------5---1--------|| /
E|----------------------3--------------------3-----||/

Y la 5ta vez (la ultima) se toca asi:
e|------------------------------||
B|------------------------------||
G|-----(0)--------------x-x-----||
D|------------------1---x-x-----||
A|----3---1-3-3-1-3-----x-x-----||
E|------------------------------||

FIN!

            
            
Suggest correction
Creating personal tab
Creating personal tab
You can edit any tab online and save it as your Personal.

You can edit, replace or remove any tab part or add personal notes – all changes will be seen only by you.

Personal tabs can be accessed anytime from any device, even offline.
Learn more »
Give kudos to tab author, rate the tab!
1 2 3 4 5
comments
print report bad tab
guest
Wanna post a correction for this tab? Suggest correction