Oops, an error
Loading. Please wait.

Mi Habitación Favorita tab

53 views 1 this week
no commentswrite comment
1 2 3 4 5
3 more votes to show rating
add to favorites
×
Save as Personal and add changes to this tab that will be seen only by you. Learn more ›
×
You can save this tab as Personal to edit and correct it or add notes. All changes will be seen only by you. Learn more »
launch autoscroll
font size
0
reset
how to read this tab
guitar tuner
edit
Autoscroll
slow
fast
+/-
esc
set tempo
stop
La canción es relativamente simple, pero tiene muchos matices
y hay que ponerle oído para tocarla bien.
Suena mejor con efectos raros y dos guitarras,
pero se puede hacer una versión "unplugged" decente.
Para Beatriz, mi pequeño desastre animal. Te amo! :*.


Riff 1

------------------------------------------------------------------
------------------------------------------------------------------
--2-2-2--1-1---1--------------------------------------------------
--0-0-0--0-0---0--------------------------------------------------
------------------------------------------------------------------
------------------------------------------------------------------

Riff 2

Varias veces                             Ocasionalmente
------------------------------------------------------------------
------------------------6-6---------------------------------------
--7-7-7-5-7---7-9---9---7-7---------------------------------------
--0-0-0-0-0---0-----0---0-0--------------4-5-4-4-7-4-7------------
-------------------------------------------------------5----------
------------------------------------------------------------------

Riff 3


--------7-------7-------6-------6---------------------------------
----------7---7---7---7---6---6---6---6---------------------------
------------7-------7-------7-------7-----------------------------
------------------------------------------------------------------
------------------------------------------------------------------
------------------------------------------------------------------

Solo

s - Slide, deslizar por los trastes
h - hammer on, "golpear con el dedo" para que suene
p - pull off, tirar para que suene

------------------------------------------------------------------
------------------------------------------------------------------
--2s7-7h8p7-5--4-5-----5-4----------------------------------------
-------------------7-7-----5--------------------------------------
------------------------------------------------------------------
------------------------------------------------------------------

DO*    REm    LA#    LA#m    SIm   MI5    DO5   LA#5    RE5

-x-    -1-    -x-    -1-    -2-    --     --    --     --
-5-    -3-    -3-    -2-    -3-    --     --    --     --
-5-    -2-    -3-    -3-    -4-    -9-    --    --     -7-
-5-    -0-    -3-    -3-    -4-    -9-    -10-  -8-    -7-
-3-    -x-    -1-    -1-    -2-    -7-    -10-  -8-    -5-
-x-    -x-    -0-    -1-    -2-    --     -8-   -6-    --

Intro - Riff 1

REm

Poco antes de las diez
sonó el despertador,


Riff 1 - Rem

sin tiempo para más

LA#   DO* (arpegios muy suaves)

cerré mi habitación.


Riff 2

He escrito en la pared todos mis salmos
para vivir mejor,
y me he puesto a explicar mi propia historia
en muros de hormigón.

REm

He vuelto a recordar

LA#   DO*

frases que ya olvidé,

Riff 1

Rem (arpegio, cejilla en quinto traste)

palabras al azar
de un mundo superior.

SIm LA#m, Riff 3 de fondo A partir del segundo "es mi habitación"

Es mi habitación,
¿quién lee mis gritos,
mis voces?
Es mi habitación.
MI5 x4 - DO5 x4 - LA#5 x1

Riff 1 - Solo

La# (sin cejilla, 1ª cuerda al aire como en flamenco)

LA# - DO*

Riff 1

Poco antes de las tres
MI léxico acabó,

La# - Comienzo del riff 2

desnudo de narrar
lo escrito se borró.

Riff 2

Nada era verdad, yo era mentira,
giraba en su interior,
borracho de sudor, loco de vida,
mi dueño no era yo.

SIm LA#m, Riff 3 de fondo A partir de la mitad

Es mi habitación,
¿quién lee mis gritos,
mis voces?
Es mi habitación.
MI5 x4 - DO5 x4 - LA#5 x1

Re5 y solo raro con Wah-wah
LA#m

Poco antes de las diez
sonó el despertador...

            
            
Suggest correction
Creating personal tab
Creating personal tab
You can edit any tab online and save it as your Personal.

You can edit, replace or remove any tab part or add personal notes – all changes will be seen only by you.

Personal tabs can be accessed anytime from any device, even offline.
Learn more »
Give kudos to tab author, rate the tab!
1 2 3 4 5
comments
print report bad tab
guest
Wanna post a correction for this tab? Suggest correction