Oops, an error
Loading. Please wait.

Me Voy A Quitar De Enmedio tab

version 2
version 2

Whole song

97 views 1 this week
no commentswrite comment
1 2 3 4 5
3 more votes to show rating
add to favorites
×
Save as Personal and add changes to this tab that will be seen only by you. Learn more ›
×
You can save this tab as Personal to edit and correct it or add notes. All changes will be seen only by you. Learn more »
launch autoscroll
font size
0
reset
how to read this tab
guitar tuner
edit
Autoscroll
slow
fast
+/-
esc
set tempo
stop
Acordes: A7 Dm Gm C D G E F

El intro esta difícil. Pero esta bien fregon si le agarran la onda.
Oigan la canción para que se les haga mas fácil

INTRO
e--5-6-5-3-5-4-5-6-3---------6-3--------6-5------------------------
b--------------------------5-----------5----6-3--------------------
g--------------------6-6-6-------6-6-6-----------------------------
d------------------------------------------------------------------
a------------------------------------------------------------------
E------------------------------------------------------------------

e--10-11-10-8-10-9-10-11-8-----------11-8----------11-10-----------
b----------------------------------10------------10------11-8------
g--------------------------11-11-11------11-11-11------------------
d------------------------------------------------------------------
a------------------------------------------------------------------
E------------------------------------------------------------------

e--13-13-13-13-13-13-----13--13-13-13-13-13-13-----13--------------
b--11-11-11-11-11-11-----11--15-15-15-15-15-15-----15--------------
g-------------------12-12---------------------14-14----------------
d------------------------------------------------------------------
a------------------------------------------------------------------
E------------------------------------------------------------------

e----10<9-7--------------------------------------------------------
b--10-------11-10-11-10-11-12-11-10-11-----------------------------
g--------------------------------------11-10-8---------------------
d------------------------------------------------------------------
a------------------------------------------------------------------
E------------------------------------------------------------------


** <-- esto significa que es estilo chero.
Bajo mayor y dos rasgueos a las 3 1eras cuerdas
y luego Bajo menor y dos rasgueos a las 3 1eras cuerdas.

-- <--esto significa que empieza el rasgueo.
Oigan la canción para que lo puedan hacer mejor

1/2<-- eso significa que nomás le vas a dar al Bajo mayor
y dos rasgueos a las 3 1eras cuerdas

ac. <-- eso significa que le das al bajo mayor y un solo rasgueo


**
                    A7
Si nuestro amor se acaba
           Dm
Si nuestro amor termina
               Gm 1/2
Ya no me queda nada
C 1/2          F
Para vivir la vida
                 Gm 1/2
Si ya olvidaste todo
A7 1/2          Dm
También tus juramentos
               E
Y llenaste de lodo
               A7     ac.A7
Mi mundo de recuerdos
                 A7
No más por tu soberbia
           Dm
No das explicaciones
             Gm 1/2
Encima me condenas
C 1/2           F
Sin escuchar razones
                Gm
Si terminar conmigo
                 Dm
Ya lo venías pensando
               E 1/2
Déjame estar contigo
A7 1/2    ac.D
Aunque no esté a tu lado

--
                     A          G
Si me dejas no me olvides por favor
            D
Nunca me olvides
                      A
Tú sabes cuanto te quiero
                        D
Que desde siempre te quise
                    A         G
Si me dejas no me olvides por favor
              D
Nunca me olvides
                         A
Me voy a quitar de en medio
                   D
Qué más quieres , que más pides

???????????INTRO?????????
**
                 A7
No más por tu soberbia
           Dm
No das explicaciones
             Gm 1/2
Encima me condenas
C 1/2           F
Sin escuchar razones
                Gm
Si terminar conmigo
                 Dm
Ya lo venías pensando
               E 1/2
Déjame estar contigo
A7 1/2    ac.D
Aunque no esté a tu lado

--
                     A          G
Si me dejas no me olvides por favor
            D
Nunca me olvides
                      A
Tú sabes cuanto te quiero
                        D
Que desde siempre te quise
                    A         G
Si me dejas no me olvides por favor
              D
Nunca me olvides
                         A
Me voy a quitar de en medio
                   D
Qué más quieres , que más pides

            
            
Suggest correction
Creating personal tab
Creating personal tab
You can edit any tab online and save it as your Personal.

You can edit, replace or remove any tab part or add personal notes – all changes will be seen only by you.

Personal tabs can be accessed anytime from any device, even offline.
Learn more »
Give kudos to tab author, rate the tab!
1 2 3 4 5
comments
print report bad tab
guest
Wanna post a correction for this tab? Suggest correction