Oops, an error
Loading. Please wait.

Brujerías tab

58 views 1 this week
no commentswrite comment
1 2 3 4 5
3 more votes to show rating
add to favorites
×
Save as Personal and add changes to this tab that will be seen only by you. Learn more ›
×
You can save this tab as Personal to edit and correct it or add notes. All changes will be seen only by you. Learn more »
launch autoscroll
font size
0
reset
how to read this tab
guitar tuner
edit
Autoscroll
slow
fast
+/-
esc
set tempo
stop
Intro:                                               ( 4 X)
E|------------------------------------------------------|
B|------------------------------------------------------|
G|------------------------------------------------------|
D|--X--X--6--X--X--6--X--X--6--X--X--6--X--X--7---------|
A|--X--X--6--X--X--6--X--X--6--X--X--6--X--X--7---------|
E|--X--X--4--X--X--4--X--X--4--X--X--4--X--X--5---------|

Fig.1
E|----------------------------------------------------------|
B|----------------------------------------------------------|
G|----------------------------------------------------------|
D|--4--4--6----4--4--6----4--4--6----4--4--6----4--4--7-----|
A|--4--4--6----4--4--6----4--4--6----4--4--6----4--4--7-----|
E|--2--2--4----2--2--4----2--2--4----2--2--4----2--2--5-----|

Repite el Intro 4 veces

w/Fig.1
Desde ni~o te ense~aron no temer 
a el poder de una mujer
no hay nada ni nadie que pueda entender 
lo que ella te puede hacer

En una botella encerro tu maldad
polvo de moscas y de iman
ahi te ves ocultado al final
es el principio....es una.....

Coro:
Brujerias.....Brujerias....Brujerias....
Fig.2                                                       (4 X)
E|------------------------------------------------------------|
B|------------------------------------------------------------|
G|------------------------------------------------------------|
D|------------------------------------------------------------|
A|------------------------------------------------------------|
E|--2--2--2----4--5--4--2--2----------2--2--4--5--4--2--2~----|

Repite el Intro

Hoy a ella la vi conjurar
en una botella encerro tu maldad
tu figura se empieza de tierra a llenar
alguna muerte, algun animal

Y de polvo de mosca e iman
sabes que es locion infernal
dinero, trabajo y amor cambiaran
no hay nada que a ti te pueda salvar

Brujerias....Brujerias....Brujerias.....

"Dinero, trabajo y amor cambiaras
no hay nada que sea para ti igual
si sabes muy bien ahora on'tas
pues ahora quizas te perderas"

Brujerias....Brujerias....Brujerias.....

Ahi viene el diablo.....ahi viene el diablo....
Suggest correction
Creating personal tab
Creating personal tab
You can edit any tab online and save it as your Personal.

You can edit, replace or remove any tab part or add personal notes – all changes will be seen only by you.

Personal tabs can be accessed anytime from any device, even offline.
Learn more »
Give kudos to tab author, rate the tab!
1 2 3 4 5
comments
print report bad tab
guest
Wanna post a correction for this tab? Suggest correction