Oops, an error
Loading. Please wait.

Mi Vida No Es Vida Sin Tí tab

14 views 1 this week
no commentswrite comment
1 2 3 4 5
3 more votes to show rating
add to favorites
×
Save as Personal and add changes to this tab that will be seen only by you. Learn more ›
×
You can save this tab as Personal to edit and correct it or add notes. All changes will be seen only by you. Learn more »
launch autoscroll
font size
0
reset
how to read this tab
guitar tuner
edit
Autoscroll
slow
fast
+/-
esc
set tempo
stop
Intro:
e|------------------|--------------------|---------------|---------|
b|------------------|--------3-3---------|---------------|---------|
g|---2-x--0-0--x----|---2-x--3-3?-3-5---2|--2-x--0-0--x--|--2-X----|
D|---3-x--0-0--x----|---2-x-----------3--|--3-x--0-0--x--|--2-X----|
A|---3-x-------x----|---3-x--1-1---------|--3-x-------x--|--3-X----|
E|-1---x--1-1--x----|--1--x--------------|-1--x--1-1--x--|-1--X----|


e|------------------|--------------|-------------|------------|
b|--3-3--X----------|--------------|-------------|------------|
g|--3-3--X----------|--------------|-------------|------------|
D|-------X----------|--------------|-------------|------------|
A|--1-1--X----------|--------------|-------------|------------|
E|------------------|--------------|-------------|------------|


Verse: ya lo ves has tornado mi mundo ?.
e|------------------|---------------------|---1-1-1------1-1-1---|
b|------------------|--------3-3--X-------|---1-1-1------1-1-1---|
g|---2-x--0-0--x----|---2-x--3-3--X-------|---2-2-2--2---2-------|
D|---3-x--0-0--x----|---2-x-------X-------|-0----------0---------|
A|---3-x-------x----|---3-x--1-1--X-------|----------------------|
E|-1---x--1-1--x----|--1--x---------------|----------------------|


e|------1-1-1------1-1-1---|----1-1-1------1--0-0--|-------------|
b|------1-1-1------1-1-1---|----1-1-1------1--1-1--|-------------|
g|-------------------------|-----------------------|-------------|
D|-------------------------|-----------------------|-------------|
A|-0--1-------1--0--------0|-------------3---------|-------------|
E|-------------------------|--3--------3-----------|-------------|


Puede ser que lo bueno dura poco y tu ?.
e|------------------|---------------------|---1-1-1------1-1-1---|
b|------------------|--------3-3--X-------|---1-1-1------1-1-1---|
g|---2-x--0-0--x----|---2-x--3-3--X-------|---2-2-2--2---2-------|
D|---3-x--0-0--x----|---2-x-------X-------|-0----------0---------|
A|---3-x-------x----|---3-x--1-1--X-------|----------------------|
E|-1---x--1-1--x----|--1--x---------------|----------------------|


e|------1-1-1------1-1-1---|----1-1-1------1--0-0--|-------------|
b|------1-1-1------1-1-1---|----1-1-1------1--1-1--|-------------|
g|-------------------------|-----------------------|-------------|
D|-------------------------|-----------------------|-------------|
A|-0--1-------1--0--------0|-------------3---------|-------------|
E|-------------------------|--3--------3-----------|-------------|


Coro:   mi vida no es vida sin tiii ?.
e|---1---1----1-1---|----1---1----1-1--|----1---1---1--1--|------|
b|---1---1----1-1---|----1---1----1-1--|----1---1---1--1--|------|
g|------------------|------------------|------------------|------|
D|------------------|-----------0------|------------------|------|
A|-1---3----------0-|-1----3-----------|--1----3---0--1---|------|
E|----------1-------|------------------|------------------|------|


e|----1----1----1?1-1---|-----------------|-------------|
b|----1----1----1-1-1---|-----------------|-------------|
g|----------------------|-----------------|-------------|
D|----------------------|-----------------|-------------|
A|-1-----3--------------|-----------------|-------------|
E|------------1---------|-----------------|-------------|


Verso 2) se queee? que no has podido olvidarme??

e|------------------|---------------------|---1-1-1------1-1-1---|
b|------------------|--------3-3--X-------|---1-1-1------1-1-1---|
g|---2-x--0-0--x----|---2-x--3-3--X-------|---2-2-2--2---2-------|
D|---3-x--0-0--x----|---2-x-------X-------|-0----------0---------|
A|---3-x-------x----|---3-x--1-1--X-------|----------------------|
E|-1---x--1-1--x----|--1--x---------------|----------------------|


e|------1-1-1------1-1-1---|----1-1-1------1--0-0--|-------------|
b|------1-1-1------1-1-1---|----1-1-1------1--1-1--|-------------|
g|-------------------------|-----------------------|-------------|
D|-------------------------|-----------------------|-------------|
A|-0--1-------1--0--------0|-------------3---------|-------------|
E|-------------------------|--3--------3-----------|-------------|


Coro: mi vida no es vida sin ti??

e|---1---1----1-1---|----1---1----1-1--|----1---1---1--1--|--1--1--|
b|---1---1----1-1---|----1---1----1-1--|----1---1---1--1--|--1--1--|
g|------------------|------------------|------------------|--------|
D|------------------|-----------0------|------------------|--------|
A|-1---3----------0-|-1----3-----------|--1----3---0--1---|-1--3---|
E|----------1-------|------------------|------------------|--------|


--
Se me hacen eternos los momentos sin ti? solo quiero amarte con pasion?
e|---------1-1-1------|---1-1-1----1-1-1-|----1-1-1---1---1-|
b|---------1-1-1------|---1-1-1----1-1-1-|----1-1-1---1---1-|
g|--------------------|------------------|------------------|
D|-------4------------|-0----------------|--0---------------|
A|--------------------|----------4-------|-----------1--3---|
E|--------------------|------------------|------------------|


Quiero contigo siempre estar juntos para la eternidad
e|-----1----1---1--|-----1--1--1-----|---1---1----1-1-1-|------------|
b|-----1----1---1--|-----1--1--1-----|---1---1----1-1-1-|------------|
g|-----------------|-----------------|------------------|------------|
D|-----------------|--0--------------|----------0-------|------------|
A|--0-----1---1----|-----------------|-1----3-----------|------------|
E|-----------------|-----------------|------------------|------------|


Coro: mi vida no es vida sin tiii ??

e|---1---1----1-1---|----1---1----1-1--|----1---1---1--1--|------|
b|---1---1----1-1---|----1---1----1-1--|----1---1---1--1--|------|
g|------------------|------------------|------------------|------|
D|------------------|-----------0------|------------------|------|
A|-1---3----------0-|-1----3-----------|--1----3---0--1---|------|
E|----------1-------|------------------|------------------|------|


e|----1----1----1?1-1---|-----------------|-------------|
b|----1----1----1-1-1---|-----------------|-------------|
g|----------------------|-----------------|-------------|
D|----------------------|-----------------|-------------|
A|-1-----3--------------|-----------------|-------------|
E|------------1---------|-----------------|-------------|


Intro:


e|------------------|--------------------|---------------|---------|
b|------------------|--------3-3---------|---------------|---------|
g|---2-x--0-0--x----|---2-x--3-3?-3-5---2|--2-x--0-0--x--|--2-X----|
D|---3-x--0-0--x----|---2-x-----------3--|--3-x--0-0--x--|--2-X----|
A|---3-x-------x----|---3-x--1-1---------|--3-x-------x--|--3-X----|
E|-1---x--1-1--x----|--1--x--------------|-1--x--1-1--x--|-1--X----|


e|----------------|--------------|-------------|------------|
b|--3-------------|--------------|-------------|------------|
g|--3-------------|--------------|-------------|------------|
D|----------------|--------------|-------------|------------|
A|--1-------------|--------------|-------------|------------|
E|----------------|--------------|-------------|------------|

            
            
Suggest correction
Creating personal tab
Creating personal tab
You can edit any tab online and save it as your Personal.

You can edit, replace or remove any tab part or add personal notes – all changes will be seen only by you.

Personal tabs can be accessed anytime from any device, even offline.
Learn more »
Give kudos to tab author, rate the tab!
1 2 3 4 5
comments
print report bad tab
guest
Wanna post a correction for this tab? Suggest correction