Oops, an error
Loading. Please wait.

Angelita Huenumán tab

version 2
version 2

Whole song

71 views 1 this week
no commentswrite comment
1 2 3 4 5
3 more votes to show rating
add to favorites
×
Save as Personal and add changes to this tab that will be seen only by you. Learn more ›
×
You can save this tab as Personal to edit and correct it or add notes. All changes will be seen only by you. Learn more »
launch autoscroll
font size
0
reset
how to read this tab
guitar tuner
edit
Autoscroll
slow
fast
+/-
esc
set tempo
stop
Intro: re7/9 - si/fa7- si/fa7  X3 - sol7/9+ - re/si*- re7/9 -fa/re#*
       REm6- FA/RE#*- REm6.


e[--5-5-5--8--5-5-5--8--5-5-5----8-7--3--5----]
B[--5-5-5--8--5-5-5--8--5-5-5----8-8--3--5----]
G[--5-5-5-----5-5-5-----5-5-5----0-0-----5----] x2
D[--------------------------------------------]
A[--0-0-0-----0-0-0-----0-0-0------------0----]
E[---------8---------8---------8--------------]


    FA/RE#*     REm6        FA/DO*
e[-----------3-----------1-----------0-------]
B[--------0-----------0-----------0----------]
G[-----0-----------2-----------0-------------]x1
D[--3-----------0-----------3----------------]
A[-------------------------------------------]
E[-------------------------------------------]


   FA*    REm7
e[--1-----------------]
B[--1----1-----1------]
G[-----2-----2--------] toda la canción (arpegio)
D[--3------0----------]
A[--------------------]
E[--------------------]

  DO9
e[------0-------------]
B[---3--3-------------]
G[---0----------------] x3 (puente)
D[--------------------]
A[-3------------------]
E[--------------------]


FA*    REm7 FA*   REm7
En el valle de Pocuno
FA*     REm7     FA*      REm7
donde rebota el viento del mar
FA*        REm7   FA*     REm7
donde la lluvia cría los musgos
FA*        REm7   FA*   DO9
vive Angelita Huenumán.

Entre el mañío y los hualles
el avellano y el pitrán
entre el aroma de las chilcas
vive Angelita Huenumán.

Cuidada por cinco perros
un hijo que dejó el amor
sencilla como su chacrita
el mundo gira alrededor.

Interludio: (intro bis)

La sangre roja del copihue
corre en sus venas Huenumán
junto a la luz de una ventana
teje Angelita su vida.

Sus manos bailan en la hebra
como alitas de chincol
es un milagro como teje
hasta el aroma de la flor.

En tus telares, Angelita,
hay tiempo, lágrima y sudor
están las manos ignoradas
de éste, mi pueblo creador.

Después de meses de trabajo
el chamal busca comprador
y como pájaro enjaulado
canta para el mejor postor.

Entre el mañío y los hualles
el avellano y el pitrán
entre el aroma de las chilcas
vive Angelita Huenumán.


Acordes     :654321

Re7/9       :X0X555
Si/fa7      :8XX088
Sol7/9+     :8XX087
Re/si*      :XXX033
Fa/re#*     :XX3003
Rem6        :XX0201
Fa*         :XX3211
Rem7        :XX0211
Do9         :X3X030
fa/do*      :XX3000

*X: No se toca en el acorde.

Nota:

La canción esta arreglada para una sola guitarra
ya que esta cancion tiene arreglos de dos guitarras,
espero les guste ya que lo hice yo, solo deben
seguir la canción saludos.
Suggest correction
Creating personal tab
Creating personal tab
You can edit any tab online and save it as your Personal.

You can edit, replace or remove any tab part or add personal notes – all changes will be seen only by you.

Personal tabs can be accessed anytime from any device, even offline.
Learn more »
Give kudos to tab author, rate the tab!
1 2 3 4 5
comments
print report bad tab
guest
Wanna post a correction for this tab? Suggest correction