Oops, an error
Loading. Please wait.

Canción De Cuna Para Un Niño Vago tab

122 views 1 this week
no commentswrite comment
1 2 3 4 5
3 more votes to show rating
add to favorites
×
Save as Personal and add changes to this tab that will be seen only by you. Learn more ›
×
You can save this tab as Personal to edit and correct it or add notes. All changes will be seen only by you. Learn more »
launch autoscroll
font size
0
reset
how to read this tab
guitar tuner
edit
Autoscroll
slow
fast
+/-
esc
set tempo
stop
 Notar que la guitarra esta afinada en RE#

      Em/B  Em/A Em/G Em/F# Em/G Em/A  Em
D#||-----0---0----0----0----0----0----------0---|
A#||----0----0----0----0----0----0---------0----|
F#||---0-----0----0----0----0----0--------0-----|
C#||--9------7----5----4----5----7-------2------|
G#||------------------------------------2-------|
D#||-----------------------------------0--------|

   Em/D    Em      Em/F#   Em
|--------0-------0-------0-------0--|
|------0-------0-------0-------0----|
|----0-------0-------0-------0------| x2
|--0-------2-------4-------2--------|
|-----------------------------------|
|-----------------------------------|

Em/D  Em  Em/F#  Em  Em/D  Em  Em/F#  Em
La luna en el agua
Em/D  Em  Em/F#  Em  Em/D  Em  Em/F#  Em
va por la ciudad.
Em/D  Em  Em/F#  Em  Em/D  Em  Em/F#  Em
Bajo el puente un niño
Em/D  Em  Em/F#  Em  Em/D  Em  Em/F#  Em
sueña con volar.

Em/D  Em  Em/F#  Em  Em/D  Em  Em/F#  Em
La ciudad lo encierra
Em/D  Em  Em/F#  Em  Em/D  Em  Em/F#  Em
jaula de metal,
Em/D  Em  Em/F#  Em  Em/D  Em  Em/F#  Em
el niño envejece
Em/D  Em  Em/F#  Em  Em/D  Em  Em/F#  Em
sin saber jugar.

   A       G6/B    C       D       A
|--------0-------0-------0-------2-------0--|
|------2-------3-------1-------3-------2----|
|----2-------0-------0-------2-------2------|
|--------------------------0----------------|
|--0-------2-------3---------------0--------|
|-------------------------------------------|
   Cuántos como tu vagarán,

   G6/B    C       D       A       Em
|--------0-------0-------2-------0-------0--|
|------3-------1-------3-------2-------0----|
|----0-------0-------2-------2-------0------|
|------------------0------------------------|
|--2-------3---------------0----------------|
|----------------------------------0--------|
   el dinero es todo para amar,

   C       D       A       G6/B    C       D
|--------0-------2-------0-------0-------0-------2--|
|------1-------3-------2-------3-------1-------3----|
|----0-------2-------2-------0-------0-------2------|
|----------0-------------------------------0--------|
|--3---------------0-------2-------3----------------|
|---------------------------------------------------|
   amargos los días, si no hay.

Em/D  Em  Em/F#  Em

Em/D  Em  Em/F#  Em  Em/D  Em  Em/F#  Em
Duérmete mi niño,
Em/D  Em  Em/F#  Em  Em/D  Em  Em/F#  Em
nadie va a gritar,
Em/D  Em  Em/F#  Em  Em/D  Em  Em/F#  Em
la vida es tan dura
Em/D  Em  Em/F#  Em  Em/D  Em  Em/F#  Em
debes descansar.

Em/D  Em  Em/F#  Em  Em/D  Em  Em/F#  Em
Otros cuatro niños
Em/D  Em  Em/F#  Em  Em/D  Em  Em/F#  Em
te van a abrigar,
Em/D  Em  Em/F#  Em  Em/D  Em  Em/F#  Em
la luna en el agua
Em/D  Em  Em/F#  Em  Em/D  Em  Em/F#  Em
va por la ciudad.

A      G6/B  C  D    A
Cuántos como tu vagarán,
G6/B  C      D  A      Em
el dinero es todo para amar,
C    D       A    G6/B  C   D
amargos los días, si no hay.

Em/D  Em  Em/F#  Em

Em/D  Em  Em/F#  Em  Em/D  Em  Em/F#  Em
Duérmete mi niño,
Em/D  Em  Em/F#  Em  Em/D  Em  Em/F#  Em
nadie va a gritar,
Em/D  Em  Em/F#  Em
la luna en el agua?

            
            
Suggest correction
Creating personal tab
Creating personal tab
You can edit any tab online and save it as your Personal.

You can edit, replace or remove any tab part or add personal notes – all changes will be seen only by you.

Personal tabs can be accessed anytime from any device, even offline.
Learn more »
Give kudos to tab author, rate the tab!
1 2 3 4 5
comments
print report bad tab
guest
Wanna post a correction for this tab? Suggest correction