Oops, an error
Loading. Please wait.

Comandante Che Guevara tab

607 views 1 this week
no commentswrite comment
1 2 3 4 5
2 more votes to show rating
add to favorites
×
Save as Personal and add changes to this tab that will be seen only by you. Learn more ›
×
You can save this tab as Personal to edit and correct it or add notes. All changes will be seen only by you. Learn more »
launch autoscroll
font size
0
reset
how to read this tab
guitar tuner
edit
Autoscroll
slow
fast
+/-
esc
set tempo
stop
Bueno, esta es mi primera trascripción, ojala les guste y la hice por
que no encontré ninguna que se ?pareciera? a la de Víctor Jara o por lo
menos a la canción que tengo, otra cosa creo que la canción se llama
"hasta siempre", no "comandante che guevara".
La canción empieza con un juego de bajos y luego un punteo además de la
Guitarra acompañante, voy a poner los bajos y el punteo en tablatura
Además de una sugerencia de acompañamiento, también en tablatura.

   Estos son     Este es un ejemplo de acompañamiento.
   los bajos     F#m
e|--------------|-----2---2---2---|-----2-------2---|
B|--------------|-----2---2---2---|-----2-------2---|
G|--------------|-----2---2---2---|-----2-------2---|
D|----------3---|-----4---4---4---|-----4-------4---|
A|--4---6-------|-----------------|---------4-------|
E|--------------|-2---------------|-2---------------|

Este es el punteo que se hace después de los bajos y en otras partes de la
Canción.

  F#m
e|-----------------------------|-----------------------------|
B|-10--9------9--10--9------9--|-10--9------9--10--9------9--|
G|--------11------------11-----|--------11------------11-----|
D|-----------------------------|-----------------------------|
A|-----------------------------|-----------------------------|
E|-----------------------------|-----------------------------|

  E
e|-------------------------|-------------------------|
B|-9--7-----7--9--7-----7--|-9--7-----7--9--7-----7--|
G|-------9-----------9-----|-------9-----------9-----|
D|-------------------------|-------------------------|
A|-------------------------|-------------------------|
E|-------------------------|-------------------------|

  D                                           C#7
e|---------------------|---------------------|---------------------|
B|-7----5---------5----|-7----5----9----7----|-6-------------------|
G|-----------7---------|---------------------|--------7--6---------|
D|---------------------|---------------------|---------------------|
A|---------------------|---------------------|---------------------|
E|---------------------|---------------------|---------------------|

Bueno aquí pueden hacer otro compás de C#7 o volver a hacer el juego de
Bajos con el que empieza la canción y de esa manera empezar los versos.

Esta es la forma en que yo acompaño los versos pero solo es una sugerencia

  F#m               Bm                C#7
e|-----2---2---2---|-----2---2---2---|-----4---4---4---|-----4-------4---|
B|-----2---2---2---|-----3---3---3---|-----6---6---6---|-----6-------6---|
G|-----2---2---2---|-----4---4---4---|-----4---4---4---|-----4-------4---|
D|-----4---4---4---|-----4---4---4---|-----6---6---6---|-----6-------6---|
A|-----------------|-2---------------|-4---------------|-4-------4-------|
E|-2---------------|-----------------|-----------------|-----------------|

F#m    Bm        C#7
  Aprendimos a quererte
F#m    Bm        C#7
  desde la histórica altura
F#m    Bm        C#7
  donde el sol de tu bravura
F#m    Bm        C#7
  le puso un cerco a la muerte.

F#m    Bm      C#7
  Aquí se queda la clara,
F#m    Bm      C#7
  la entrañable transparencia,
   F#m         E
de tu querida presencia
   D             C#7
Comandante Che Guevara.

En esta parte ?de tu quer?.? Son los mismos acordes del intro e igualmente
Pueden terminar con un compás de C#7 o hacer de nuevo el juego de bajos
Para tocar el punteo que no es mas que el intro.

F#m    Bm        C#7
  Tu mano gloriosa y fuerte
F#m    Bm        C#7
  sobre la historia dispara
F#m    Bm        C#7
  cuando todo Santa Clara
F#m    Bm        C#7
  se despierta para verte.

F#m    Bm      C#7
  Aquí se queda la clara,
F#m    Bm      C#7
  la entrañable transparencia,
   F#m         E
de tu querida presencia
   D             C#7
Comandante Che Guevara.

   Otra vez se toca el intro y se repiten los mismos acordes en los
   Los versos que quedan.

Vienes quemando la brisa
con soles de primavera
para plantar la bandera
con la luz de tu sonrisa.

Aquí se queda la clara,
LA entrañable transparencia,
de tu querida presencia
Comandante Che Guevara.

 Y de nuevo el intro

Tu amor revolucionario
te conduce a nueva empresa
donde esperan la firmeza
de tu brazo libertario.

Aquí se queda la clara,
LA entrañable transparencia,
de tu querida presencia
Comandante Che Guevara.

  Ultimo ?intro?

Seguiremos adelante
como junto a ti seguimos
y con Fidel te decimos:
hasta siempre Comandante.

Aquí se queda la clara,
LA entrañable transparencia,
de tu querida presencia
Comandante Che Guevara. ??.Y pues termina en un C#7 rasgueado

Bueno como dije antes ojala les guste y si tienen correcciones,
pues bien puedan, la canción creo que esta en escala de F#m,
por si les sirve de algo el dato.
Lo único que me queda es dedicársela a stephany que ojala algún
día la pueda tocar XD.
Ahhh y ?Hasta la victoria siempre?? que viva la UNC

            
            
Suggest correction
Creating personal tab
Creating personal tab
You can edit any tab online and save it as your Personal.

You can edit, replace or remove any tab part or add personal notes – all changes will be seen only by you.

Personal tabs can be accessed anytime from any device, even offline.
Learn more »
Give kudos to tab author, rate the tab!
1 2 3 4 5
comments
print report bad tab
guest
Wanna post a correction for this tab? Suggest correction