Oops, an error
Loading. Please wait.

Corrido De Pancho Villa tab

133 views 1 this week
no commentswrite comment
1 2 3 4 5
3 more votes to show rating
add to favorites
×
Save as Personal and add changes to this tab that will be seen only by you. Learn more ›
×
You can save this tab as Personal to edit and correct it or add notes. All changes will be seen only by you. Learn more »
launch autoscroll
font size
0
reset
how to read this tab
guitar tuner
edit
Autoscroll
slow
fast
+/-
esc
set tempo
stop
Intro (cejillo espacio 1º):

                                       G                 F
E||--------------|------7----7----||---7----7----7----|--8-----7----5----|
B||--------------|------8----8----||---8----8----8----|--10----8----6----|
G||--------------|----------------||*-----------------|------------------|
D||--------------|----------------||*-----------------|------------------|
A||--------------|----------------||------------------|------------------|
E||--------------|----------------||------------------|------------------|


  C                                   G                                   
--5----3----3----|--5----3----5----|--7----5----3----|--5----3----1----|
--6----5----5----|--6----5----6----|--8----6----5----|--6----5----3----|
-----------------|-----------------|-----------------|-----------------|
-----------------|-----------------|-----------------|-----------------|
-----------------|-----------------|-----------------|-----------------|
-----------------|-----------------|-----------------|-----------------|


  C                                                                         C
--0---------------|-------------------|-------0----0----|-----------------|-------0----0----|
--1---------------|-------------------|-------1----1----|-----------------|-------1----1----|
------------------|-------------------|-------0----0----|-----------------|-------0----0----|
---------2--3--4--|--5----4--5--3--0--|-----------------|-----------------|-----------------|
------------------|-------------------|--3--------------|-------0----2----|--3--------------|
------------------|-------------------|-----------------|--3--------------|-----------------|

C
Fui soldado de Francisco Villa
de aquel hombre de fama inmortal
              F
que aunque estuvo sentado en la silla
no envidiara la presidencial.
       G
Ahora vivo allá por la orilla
recordando aquel tiempo inmortal,
    G7
ayaaay,
                         C
ahora vivo allá por la orilla
              G                 C  
recordando a Villa allá por Parral.

Intro

Yo fui uno de aquellos dorados
que con tiempo llegó a ser mayor
en la lucha quedamos lisiados
defendiendo la patria y honor.
Hoy recuerdo los tiempos pasados
que peleamos con el invasor
ayaaay,
hoy recuerdo los tiempos pasados
de aquellos dorados que yo fui mayor.

Intro

Mi caballo que tanto montaba
en Jiménez la muerte alcanzó
una bala que a mí me tocaba
a su cuerpo se le atravesó.
Al morir de dolor relinchaba
por la patria la vida entregó
ayaaay,
al morir de dolor relinchaba
cómo le lloraba cuando se murió.

Intro

Pancho Villa te llevo grabado
en mi mente y en mi corazón
y aunque a veces me vi derrotado
por las fuerzas de Álvaro Obregón
siempre anduve como fiel soldado
hasta el fin de la revolución
ayaaay,
siempre anduve como fiel soldado
que tanto ha luchado al pie del cañón.

Intro


Acordes usados (cejillo espacio 1º):

      F   G   G7  C  
E||---1---3---3---0---
B||---1---3---3---1---
G||---2---4---4---0---
D||---3---5---3---2---
A||---3---5---5---3---
E||---1---3---3---0---

            
            
Suggest correction
Creating personal tab
Creating personal tab
You can edit any tab online and save it as your Personal.

You can edit, replace or remove any tab part or add personal notes – all changes will be seen only by you.

Personal tabs can be accessed anytime from any device, even offline.
Learn more »
Give kudos to tab author, rate the tab!
1 2 3 4 5
comments
print report bad tab
guest
Wanna post a correction for this tab? Suggest correction