Oops, an error
Loading. Please wait.

Deja La Vida Volar tab

188 views 3 this week
no commentswrite comment
1 2 3 4 5
3 more votes to show rating
add to favorites
×
Save as Personal and add changes to this tab that will be seen only by you. Learn more ›
×
You can save this tab as Personal to edit and correct it or add notes. All changes will be seen only by you. Learn more »
launch autoscroll
font size
0
reset
how to read this tab
guitar tuner
edit
Autoscroll
slow
fast
+/-
esc
set tempo
stop
Intro: (cejillo espacio 7º... sonido real: Am=Em)

    Bm/E            Am              Bm/E            Am              Bm/E 
E||--2------------|--0------------|--2------------|--0------------|--2--------2--------|
B||--3------------|--1------------|--3------------|--1------------|-----3--------3-----|
G||--4------------|--2------------|--4------------|--2------------|--------4--------4--|
D||---------------|---------------|---------------|---------------|--------------------|
A||---------------|--0------------|---------------|--0------------|--------------------|
E||--0------------|---------------|--0------------|---------------|--0-----------------|

 
  Am                   Bm/E                 Am                  Bm/E
--0--------0--------|--2--------2--------|--0--------0--------|--2--------2--------|
-----1--------1-----|-----3--------3-----|-----1--------1-----|-----3--------3-----|
--------2--------2--|--------4--------4--|--------2--------2--|--------4--------4--|
--------------------|--------------------|--------------------|--------------------|
--0-----------------|--------------------|--0-----------------|--------------------|
--------------------|--0-----------------|--------------------|--0-----------------|


  Am                   Bm/E                Am                     Em (continúa el mismo rasgueo)
--0--------0--------|--2--------2--------|--0--0--0--(0)--0--0--|--0--0--0--(0)--0--0--|
-----1--------1-----|-----3--------3-----|--1--1--1--(1)--1--1--|--0--0--0--(0)--0--0--|
--------2--------2--|--------4--------4--|--2--2--2--(2)--2--2--|--0--0--0--(0)--0--0--|
--------------------|--------------------|--2--2--2--(2)--2--2--|--2--2--2--(2)--2--2--|
--0-----------------|--------------------|--0--0--0--(0)--0--0--|--2--2--2--(2)--2--2--|
--------------------|--0-----------------|--0--0--0--(0)--0--0--|--0--0--0--(0)--0--0--|

Am - Em - Am...

(·) notas en paréntesis = rasgueo apagado.

Parte A:

Am
En tu cuerpo flor de fuego
             Em - Am
tienes paloma,
                   Bm/E
un temblor de primaveras,
       Am - Bm/E - Am
palomotay,
       C               E - Am (Em) Am (Em) Am
un volcán corre en tus venas.

Am
Y mi sangre como brasa
         Em - Am
tienes paloma,
                       Bm/E
en tu cuerpo quiero hundirme,
       Am - Bm/E - Am
palomotay,
       C               E - Am (Em) Am (Em) Am
hasta el fondo de tu sangre.

Parte B:

Am         Bm/E    Am  - Bm/E - Am
El sol morirá, morirá
            Bm/E     Am  - Bm/E - Am
la noche vendrá, vendrá.
   Dm
Envuélvete en mi cariño,
 C     
deja la vida volar,
    E
tu boca junto a mi boca,
               Am
paloma, polomitay.
   Dm
Envuélvete en mi cariño,
 C     
deja la vida volar,
    E
tu boca junto a mi boca,
               Am
paloma, polomitay.
Bm/E   Am
Ay palomay,
Bm/E    Am - Em - Am - Em - Am.
ay palomaaaaaay.

(Intro)

Parte A:
En tu cuerpo flor de fuego
tienes paloma,
una llamarada mía,
palomitay,
que ha calmado mil heridas.

Ahora volemos libres
tierna paloma,
no pierdas las esperanzas,
palomitay
la flor crece con el agua.

Parte B:
El sol volverá, volverá
la noche se irá, se irá.
Envuélvete en mi cariño,
deja la vida volar,
tu boca junto a mi boca,
paloma, palomitay.
Envuélvete en mi cariño,
deja la vida volar,
tu boca junto a mi boca,
paloma, palomitay.
Ay palomay,
ay palomay.


Acordes usados (cejillo espacio 7º):

  Bm/E   
---2-----
---3-----
---4-----
---0-----
---0-----
---0-----

            
            
Suggest correction
Creating personal tab
Creating personal tab
You can edit any tab online and save it as your Personal.

You can edit, replace or remove any tab part or add personal notes – all changes will be seen only by you.

Personal tabs can be accessed anytime from any device, even offline.
Learn more »
Give kudos to tab author, rate the tab!
1 2 3 4 5
comments
print report bad tab
guest
Wanna post a correction for this tab? Suggest correction