Oops, an error
Loading. Please wait.

El Alma Llena De Banderas chords

version 2
version 2

Whole song

31 views 1 this week
no commentswrite comment
1 2 3 4 5
3 more votes to show rating
add to favorites
×
Save as Personal and add changes to this tab that will be seen only by you. Learn more ›
×
You can save this tab as Personal to edit and correct it or add notes. All changes will be seen only by you. Learn more »
launch autoscroll
font size
0
reset
transpose
0
reset
simplify chords
display chords
guitar tuner
edit
Autoscroll
slow
fast
+/-
esc
set tempo
stop
Strumming
There is no strumming pattern for this song yet. and get +5 IQ
Aquí está esta gran rola del cantor de revolución.
Hay que ponerle un poquito de oí alguien se la sabe mejor
o tiene alguna duda, queja o sugerencia favor escribir a mi correo.


Intro:

    E dis/A          E-dis            F/E           Em
E|--0-----------|--0-----------|--0-----------|--0-----------|
A|--------------|--------------|-------3-----3|-------2-----2|
D|-------2-----2|-------0-----0|-----3-----3--|-----2-----2--|
G|-----1-----1--|-----0-----0--|--2------2----|--0------0----|
B|--1------1----|--0------0----|--------------|--------------|
e|--------------|--------------|--------------|--------------|(bis)

      Bm             G*             Asub7             Em
E|--------------|--3-----------|--------------|--0-----------|
A|--2-----------|--------------|--0-----------|--------------|
D|-------4-----4|-------5-----5|-------2-----2|-------2-----2|
G|-----4-----4--|-----4-----4--|-----1-----1--|-----0-----0--|
B|--3------3----|--3------3----|--2------2----|--0------0----|
e|--------------|--------------|--------------|--------------|

Nota: este es el arpegio de toda la canción,
sólo van escuchando el respectivo cambio.


  Edis/A             E-dis
Ahí, debajo de la tierra,
             F/E                 Em
no estás dormido, hermano, compañero.
        Edis/A                 E-dis
Tu corazón oye brotar la primavera
           F/E                    Em
que, como tú, soplando irán los vientos.
  Edis/A                E-dis
Ahí, enterrado cara al sol,
           F/E               Em
la nueva tierra cubre tu semilla.
     Edis/A               E-dis
La raíz profunda se hundirá
        F/E                 Em
y nacerá la flor del nuevo día;
        F/E                 Em, E (en este cambio sigue con el mismo
y nacerá la flor del nuevo díaaaa. arpegio, sólo cambia el acorde.)
Bm                       G*
A tus pies heridos llegarán
 Bm                          G*
las manos del humilde, llegarán.
          Asub7 Em
S e m b r a n d o.
     Bm                     G*
Tu muerte muchas vidas traerá
      Bm                         G*
que, hacia donde tú ibas, marcharán.
        Asub7 Em
C A n t A n D o.

 Interludio: E dis/A, E-dis, F/E, Em, Bm, G*, Asub7, E-dis
  (sin repetir los primeros cuatro acordes.)

   E dis/A                     E-dis
Allí, donde se oculta el criminal,
    F/E                          Em
tu nombre brinda al rico muchos nombres.
     E dis/A                E-dis
El que quemó tus alas al volar
         F/E                Em
no apagará el fuego de los pobres.
   Bm                          G*
Aquí, hermano aquí, sobre la tierra,
   Bm                       G*
el alma se nos llena de banderas
        Asub7  Em
que a v a n z a n.
   Bm                          G*
Aquí, hermano aquí, sobre la tierra,
   Bm                       G*
el alma se nos llena de banderas
        Asub7  Em
que a v a n z a n.
            Asub7  Em
contra el m i e d o;
     Asub7  Em
 a v a n z a n.
            Asub7  Em
contra el m i e d o.
             Asub7,Em
¡V e n c e r e m o s!;
             Asub7,E
¡v e n c e r e m o s!


Acordes usados :

    Edis/A  E-dis  F/E  Em  Bm  G*  Asub7
E||-0-------0------0----0---2---3---0----
A||-0-------2------3----2---2---5---0----
D||-2-------0------3----2---4---5---2----
G||-1-------0------2----0---4---4---1----
B||-1-------0------0----0---3---3---2----
e||-0-------0------0----0---2---3---0----

¡Gracias Víctor por dejarnos tu música!
 discúlpanos por profanarla.

            
            
Suggest correction
Creating personal tab
Creating personal tab
You can edit any tab online and save it as your Personal.

You can edit, replace or remove any tab part or add personal notes – all changes will be seen only by you.

Personal tabs can be accessed anytime from any device, even offline.
Learn more »
Give kudos to tab author, rate the tab!
1 2 3 4 5
comments
print report bad tab
guest
Wanna post a correction for this tab? Suggest correction