Oops, an error
Loading. Please wait.

La Flor Que Anda De Mano En Mano chords

32 views 1 this week
no commentswrite comment
1 2 3 4 5
3 more votes to show rating
add to favorites
×
Save as Personal and add changes to this tab that will be seen only by you. Learn more ›
×
You can save this tab as Personal to edit and correct it or add notes. All changes will be seen only by you. Learn more »
launch autoscroll
font size
0
reset
transpose
0
reset
simplify chords
display chords
guitar tuner
edit
Autoscroll
slow
fast
+/-
esc
set tempo
stop
Strumming
There is no strumming pattern for this song yet. and get +5 IQ
Intro: (cejillo espacio 1º)
          
     D6  G9+/D D6      A7            D6          G9+/D       D6      A7            D6   
E||--2/3--(3)--2--(2)--0--0--0--(0)--2--(2)--2/3--3--3--(3)--2--(2)--0--0--0--(0)--2--(2)--
B||--0----(0)--0--(0)--2--2--2--(2)--0--(0)--0----0--0--(0)--0--(0)--2--2--2--(2)--0--(0)--
G||--2/3--(3)--2--(2)--0--0--0--(0)--2--(2)--2/3--3--3--(3)--2--(2)--0--0--0--(0)--2--(2)--
D||--0----(0)--0--(0)--2--2--2--(2)--0--(0)--0----0--0--(0)--0--(0)--2--2--2--(2)--0--(0)--
A||--0----(0)--0--(0)--0--0--0--(0)--0--(0)--0----0--0--(0)--0--(0)--0--0--0--(0)--0--(0)--
E||----------------------------------------------------------------------------------------

(.) notas en paréntesis = rasgueo apagado.


Verso:

D6         A7                D6
La flor que anda de mano en mano
      A7           D6
para qué la quiero yo
 G9+/D             D6
gócela quien la merece
      A7          D6
que para mí se acabó
G9+/D              D6
gócela quien la merece
      A7          D6
que para mí se acabó.

(Intro)

Verso:
Otro se halla en el jardín
gozando la mesma flor
como yo fui del primero
no me queda ni un dolor
como yo fui del primero
no me queda ni un dolor.

(Intro)

Verso:
Anda y dícele a tu amante
dícele que digo yo
que la flor que está gozando
primero la gocé yo
que la flor que está gozando
primero la gocé yo.


Final:

     D6  G9+/D D6      A7            D6 
E||--2/3--(3)--2--(2)--0--0--0--(0)--2---
B||--0----(0)--0--(0)--2--2--2--(2)--0---
G||--2/3--(3)--2--(2)--0--0--0--(0)--2---
D||--0----(0)--0--(0)--2--2--2--(2)--0---
A||--0----(0)--0--(0)--0--0--0--(0)--0---
E||--------------------------------------


Acordes:

  D6   G9+/D  A7   
---2-----3----0----
---0-----0----2----
---2-----3----0----
---0-----0----2----
---0-----0----0----
--------------0----

Nota: Puede que la nota G9+/D no les suene bien al comienzo, pero la versión original de la canción es así.
      Digo esto porque yo no creía que esa era la nota porque suena algo raro, pero así es. En caso de 
      cualquier duda,corrección o comentario escribanme.
Suggest correction
Creating personal tab
Creating personal tab
You can edit any tab online and save it as your Personal.

You can edit, replace or remove any tab part or add personal notes – all changes will be seen only by you.

Personal tabs can be accessed anytime from any device, even offline.
Learn more »
Give kudos to tab author, rate the tab!
1 2 3 4 5
comments
print report bad tab
guest
Wanna post a correction for this tab? Suggest correction