Oops, an error
Loading. Please wait.

La Luna Siempre Es Muy Linda tab

65 views 3 this week
no commentswrite comment
1 2 3 4 5
3 more votes to show rating
add to favorites
×
Save as Personal and add changes to this tab that will be seen only by you. Learn more ›
×
You can save this tab as Personal to edit and correct it or add notes. All changes will be seen only by you. Learn more »
launch autoscroll
font size
0
reset
how to read this tab
guitar tuner
edit
Autoscroll
slow
fast
+/-
esc
set tempo
stop
Intro: Em....

Em        Am
Ah, ah ah ah
      Em - Em7 - Em6 - Em
ah ah ah.
          Am
Ah, ah ah ah
      Em - Em7 - Em6 - Em
Ah ah ah.

Parte A:

Em             
Recuerdo el rostro de mi padre
         Em7   Em6    F#m7/6
como un hueco en la muralla,
Em      Em9          Em10
sábanas manchadas de barro,
  Em9   Em10
piso de tierra,
   Gm6         Em7*     F#m7/6  
mi madre día y noche trabajando
Gm6 Em7*   F#m7/6  - Gm6 - Em
llantos y gritos.

Em             
Jugando al ángel y al diablo
   Em7          Em6           F#m7/6
jugando al hijo que no va a nacer,
    Em10  Em9          Em10
las velas siempre encendidas,
            Em9       Em10
hay que refugiarse en algo,
    Gm6   Em7*     F#m7/6  
¿de dónde sale el dinero
Gm6     Em7*  F#m7/6
para pagar la fe?.

Recitado:
    Am            
E||---------0-----|---------0-----|
B||------5--------|------5--------|
G||------5--------|------5--------|
D||---------------|---------------|
A||---------------|---------------|
E||---5-----------|---5-----------|


---------0-----|---------0-----|
------5--------|------5--------|
------5--------|------5--------|
---------------|---------------|
---------------|---------------|
---5-----------|---5-----------|

---------0----|---------0----|---------0----|
------5-------|------5-------|------5-------|
------5-------|------5-------|------5-------|
--------------|--------------|--------------|
--------------|--------------|--------------|
---5----------|---5----------|---5----------|
No recuerdo que desde el cielo 

---------0----|---------0----|---------0----|
------5-------|------5-------|------5-------|
------5-------|------5-------|------5-------|
--------------|--------------|--------------|
--------------|--------------|--------------|
---5----------|---5----------|---5----------|
               halla bajado una cosecha gloriosa

Gm6
---------0----|---------0----|---------0----|
------3-------|------3-------|------3-------|
------3-------|------3-------|------3-------|
--------------|--------------|--------------|
--------------|--------------|--------------| 
---3----------|---3----------|---3----------|                            
Ni que mi madre 

---------0----|---------0----|---------0----|
------3-------|------3-------|------3-------|
------3-------|------3-------|------3-------|
--------------|--------------|--------------|
--------------|--------------|--------------|
---3----------|---3----------|---3----------|
hubiera tenido un poco de paz...
 
F#m7
---------0----|---------0----|---------0----|---------0----|
------2-------|------2-------|------2-------|------2-------|
------2-------|------2-------|------2-------|------2-------|
--------------|--------------|--------------|--------------|
--------------|--------------|--------------|--------------|
---2----------|---2----------|---2----------|---2----------|
             Ni que mi padre hubiera dejado de beber.

Intro

Parte A:

Em             
Al pobre tanto lo asustan
          Em7         Em6   F#m7/6
para que trague todos sus dolores,
Em10     Em9  Em10
para que su miseria
     Em9       Em10
la cubra de imágenes.
   Gm6  Em7*           F#m7/6  
La luna siempre es muy linda
Gm6      Em7*       F#m7/6  - Gm6 - Em
y el sol muere cada tarde.

Em                    Em7 - Em6   
Por eso quiero gritar:
            F#m7/6
no creo en nada,
Em10-Em9     Em10
sino en el calor
          Em9     Em10
de tu mano con mi mano.
    Gm6  Em7*     F#m7/6  - Gm6
Por eso quiero gritar:
    Em7*   F#m7/6
no creo en nada
Gm6  Em7*   Gm6
sino en el amor
       
Em7     F#m7/6
de los seres humanos

Recitado:
    Am            
E||---------0-----|---------0-----|---------0-----|
B||------5--------|------5--------|------5--------|
G||------5--------|------5--------|------5--------|
D||---------------|---------------|---------------|
A||---------------|---------------|---------------|
E||---5-----------|---5-----------|---5-----------|

 
---------0----|---------0----|---------0----|
------5-------|------5-------|------5-------|
------5-------|------5-------|------5-------| 
--------------|--------------|--------------|
--------------|--------------|--------------|
---5----------|---5----------|---5----------|
¿Quién puede callar el latido de un  


---------0----|---------0----|---------0----|
------5-------|------5-------|------5-------|
------5-------|------5-------|------5-------|
--------------|--------------|--------------|
--------------|--------------|--------------|
---5----------|---5----------|---5----------|
corazón palpitando...

Gm6
---------0----|---------0----|---------0----|---------0----|
------3-------|------3-------|------3-------|------3-------|
------3-------|------3-------|------3-------|------3-------|
--------------|--------------|--------------|--------------|
--------------|--------------|--------------|--------------|
---3----------|---3----------|---3----------|---3----------|
                                o el grito de una mujer 

---------0----|---------0----|---------0----|
------3-------|------3-------|------3-------|
------3-------|------3-------|------3-------|
--------------|--------------|--------------|
--------------|--------------|--------------| 
---3----------|---3----------|---3----------|                            
dando un hijo?...

F#m7
---------0----|---------0----|
------2-------|------2-------|
------2-------|------2-------|
--------------|--------------|
--------------|--------------|
---2----------|---2----------|
   ¿Quién?...

Intro (perdiéndose)


Acordes usados :

  Em6  Em7  Em10 Em9  Em7* Gm6 F#7/6
---0----0----3----2----0----0---0----
---2----3----0----0----0----3---2----
---0----0----0----0----0----3---2---
---2----2----2----2----0----0---0----
---2----2----2----2----2----0---0----
---0----0----0----0----0----3---2----

A mi tía Alejandra, quien siempre me pide 
que toque este tema.
Suggest correction
Creating personal tab
Creating personal tab
You can edit any tab online and save it as your Personal.

You can edit, replace or remove any tab part or add personal notes – all changes will be seen only by you.

Personal tabs can be accessed anytime from any device, even offline.
Learn more »
Give kudos to tab author, rate the tab!
1 2 3 4 5
comments
print report bad tab
guest
Wanna post a correction for this tab? Suggest correction