Oops, an error
Loading. Please wait.

La Muerte De Carmencita tab

62 views 1 this week
no commentswrite comment
1 2 3 4 5
3 more votes to show rating
add to favorites
×
Save as Personal and add changes to this tab that will be seen only by you. Learn more ›
×
You can save this tab as Personal to edit and correct it or add notes. All changes will be seen only by you. Learn more »
launch autoscroll
font size
0
reset
how to read this tab
guitar tuner
edit
Autoscroll
slow
fast
+/-
esc
set tempo
stop
Intro (cejillo espacio 3º, sonido real: Em=Gm):

E||------|--7--------5-3---|--5----------2---|--3--------2-0---|--2--------0----|
B||------|-----------------|-----------5-----|-----------------|----------------|
G||------|-----------------|-----------------|-----------------|----------------|
D||------|-----------------|-----------------|-----------------|----------------| Tiple
A||------|-----------------|-----------------|-----------------|----------------|
E||------|-----------------|-----------------|-----------------|----------------|
                                                                          
E||------|-----------------|-----------------|---------------|---------------|
B||------|-----------------|--5--------------|--0------------|--2------------|
G||------|-----------------|--0--------------|--7------------|--0------------|
D||------|--5--------------|--5--------------|--5------------|---------------| Guitarra
A||------|-----------------|--4--------------|---------------|--0------------|
E||------|-----------------|-----------------|--7------------|---------------|


                                                                                          
--2--------0--------|--------------------|--2------------|
--------------------|--1----0------------|--2------------|
--------------------|------------0-------|--0------------|
--------------------|--------------------|--0------------| Tiple
--------------------|--------------------|---------------|
--------------------|--------------------|---------------|

--------------------|--------------------|--2------------|
-----0--0--------0--|--------0--------0--|--3------------|
-----0--------0-----|-----0--------0-----|--2------------|
--4--------2--------|--------------------|--0------------|Guitarra
--------------------|--3--------2--------|--0------------|
--------------------|-----------------3--|--2------------|

C               Em
Con su mejor vestido 
           C    Em7 - Am7 - Em7
bien planchado, iba.
    C             Em
Temblando de ansiedad
     C           Em7 - C - Em
sus lágrimas corrían.
     Em*      D6
A lo lejos gemidos
    Em*       D6   - Em - D6
de perros y bocinas.
    Em*             D6
El parque estaba oscuro
  Em*           D6 - Em - D6
y la ciudad dormía.

  C           Em
Apenas quince años
  Am7         Em7  - Am7 - Em7   
y su vida marchita.
      C          Em
El hogar la aplastaba
     C           Em7 - Am7 - Em7
y el colegio aburría.
     Em*        D6
En pasillos de radios
    Em*       D6 - Em - D6
su corazón latía.
       Em*       A6/C#
Deslumbraban sus ojos
    G/B        A7/6 - G/B - A7/6 - C - Em
los ídolos del día.

      C         Em
Los fríos traficantes
    C          Em7 - Am7 - Em7
de sueños en revistas,
     C          Em
que de la juventud
   C           Em7 - C - Em
engordan y profitan,
     Em*        D6
torcieron sus anhelos
    Em*       D6 - Em - D6
y le dieron mentira,
     Em*        D6
la dicha embotellada,
    Em*       D6 - Em - D6 - C - Em
amor y fantasía.
  C         Em
Apenas quince años
    C         Em7 - Am7 - A7 
y su vida marchita

C7+/G
Huyó.
              E9
Carmencita murió.
        C7+/G              F
En sus sienes la rosa sangró.
                                 Em  - E9
Partió a encontrar su última ilusión.

LA muchacha ignoraba 
que la envenenarían,
que toda aquella fábula
no le pertenecía,
conocer ese mundo
de marihuana y piscina,
con Braniff International
viajar a la alegría.

Su mundo era aquel,
aquel del barrio Pila,
de calles aplastadas
llenas de gritería.
Su casa estrecha y baja,
ayudar en la cocina.
Mientras agonizaba, 
otros enriquecían.
Los diarios comentaron:
causa desconocida.

Huyó.
Carmencita murió.
En sus sienes la rosa sangró.
Partió a encontrar su última ilusión.
Huyó.
Carmencita murió.
En sus sienes la rosa sangró.
Partió a encontrar su última ilusión.


Acordes usados (cejillo espacio 3º):

     Em7  Em*  D6 A7/C# G/B A7/6  A7 
E||---0----3---2---5----3----2----0----
B||---0----0---0---5----3----2----2----
G||---0----0---2---0----0----0----1----
D||---0----2---0------------------2----
A||---2------------4----2----0----0----
E||---0---------------------------0----

            
            
Suggest correction
Creating personal tab
Creating personal tab
You can edit any tab online and save it as your Personal.

You can edit, replace or remove any tab part or add personal notes – all changes will be seen only by you.

Personal tabs can be accessed anytime from any device, even offline.
Learn more »
Give kudos to tab author, rate the tab!
1 2 3 4 5
comments
print report bad tab
guest
Wanna post a correction for this tab? Suggest correction