Oops, an error
Loading. Please wait.

Luchín tab

version 1
version 1

Whole song

Interactive

737 views 3 this week
no commentswrite comment
1 2 3 4 5
3 more votes to show rating
add to favorites
×
Save as Personal and add changes to this tab that will be seen only by you. Learn more ›
×
You can save this tab as Personal to edit and correct it or add notes. All changes will be seen only by you. Learn more »
launch autoscroll
font size
0
reset
how to read this tab
guitar tuner
edit
Autoscroll
slow
fast
+/-
esc
set tempo
stop
aqui está arreglada ya que a las anteriores le pille varios errores..


Intro [tono original : cejillo 1° espacios]

     Em9          A7      Em9           A7       Em9          A7
E||--7------7-----5-----|--7------7-----5-----|--7------7-----5-----|
B||-----7------7-----5--|-----7------7-----5--|-----7------7-----5--|
G||-------0----0-----0--|-------0----0-----0--|-------0----0-----0--|
D||---------------------|---------------------|---------------------|
A||---------------------|---------------------|---------------------|
E||--0------------5-----|--0------------5-----|--0------------5-----|


  G/B          A7       F#    Fin Intro          D6           A7
---------------------|----------------------||---2------2-----------|
--3------3-----2-----|----------------------||------0------0--2-----|
-----0------0-----0--|----------------------||*-------2----2-----0--|
-------0----0--------|--4----4----4----4----||*--0------0--------2--|
--2------2-----0-----|----------------------||----------------0-----|
------------------0--|--2----2----2----2----||----------------------|
                                     Verso:    Frá-gil como un volan -

  D6                    G7           A7       D6           A7       D6
--2------2-----2-----|--2------2-----------|--2------2-----------|--2------2-----|
-----0------0-----0--|-----0------0--2-----|-----0------0--2-----|-----0------0--|
-------2----2-----2--|-------0----0-----0--|-------2----2-----0--|-------2----2--|
--0------0-----0-----|------------------2--|--0------0--------2--|--0------0-----|
---------------------|---------------0-----|---------------0-----|---------------|
---------------------|--3------3-----------|---------------------|---------------|
 tín,                  en los techos de Ba - rrancas,

               A7       D6                    G7           A7       D6
--2------2-----------|--2------2-----2-----|--2------2-----------|--2------2-----2-----|
-----0------0--2-----|-----0------0-----0--|-----0------0--2-----|-----0------0-----0--|
-------2----2-----0--|-------2----2-----2--|-------0----0-----0--|-------2----2-----0--|
--0------0--------2--|--0------0-----0-----|------------------2--|--0------0-----0-----|
---------------0-----|---------------------|---------------0-----|---------------------|
---------------------|---------------------|--3------3-----------|---------------------|
 jugaba el niño Lu  - chín                    con sus manitos mo -  ra - das,

 G/B           A7/4     G                    G/B           A7/4     G
---------------------|---------------------|---------------------|---------------------|
--3------3-----2-----|--0--0---0-----0-----|--3------3-----2-----|--0--0---0-----0-----|
-----0------0-----0--|---------------------|-----0------0-----0--|---------------------|
-------0----0-----0--|-------0----0-----0--|-------0----0-----0--|-------0----0-----0--|
--2------2-----0-----|-------0----0-----0--|--2------2-----0-----|-------0----0-----0--|
---------------------|--3------3-----3-----|---------------------|--3------3-----3-----|
 con la pe-lota  de     tra - po,            con el gato y con el  pe - rro,

 G/B           A7/4     F#4
---------------------|--2------2-----2-----|--2------2-----2------||
--3------3-----2-----|-----2------2-----2--|-----2------2-----2---||
-----0------0-----0--|-------4----4-----4--|-------4----4-----4--*||
-------0----0-----0--|--4------4-----4-----|--4------4-----4-----*||
--2------2-----0-----|---------------------|----------------------||
---------------------|---------------------|----------------------||
  el ca-ba-llo lo mi - ra - ba.

En el agua de sus ojos
se bañaba el verde claro,
gateaba a su corta edad
con el potito embarrado,
con la pelota de trapo,
con el gato y con el perro,
el caballo lo miraba.

Intro

El caballo era otro juego
en aquel pequeño espacio
y al animal, parecía,
le gustaba ese trabajo,
con la pelota de trapo,
con el gato y con el perro
y con Luchito mojado.

Si hay niños como Luchín
que comen tierra y gusanos,
abramos todas las jaulas
pa' que vuelen como pájaros,
con la pelota de trapo,
con el gato y con el perro
y también con el caballo.

Intro


...'VICTOR JARA, TU MÚSICA DEJÓ FRUTOS'...

            
            
Suggest correction
Creating personal tab
Creating personal tab
You can edit any tab online and save it as your Personal.

You can edit, replace or remove any tab part or add personal notes – all changes will be seen only by you.

Personal tabs can be accessed anytime from any device, even offline.
Learn more »
Give kudos to tab author, rate the tab!
1 2 3 4 5
comments
print report bad tab
guest
Wanna post a correction for this tab? Suggest correction