Oops, an error
Loading. Please wait.

Manifiesto tab

558 views 3 this week
no commentswrite comment
1 2 3 4 5
3 more votes to show rating
add to favorites
×
Save as Personal and add changes to this tab that will be seen only by you. Learn more ›
×
You can save this tab as Personal to edit and correct it or add notes. All changes will be seen only by you. Learn more »
launch autoscroll
font size
0
reset
how to read this tab
guitar tuner
edit
Autoscroll
slow
fast
+/-
esc
set tempo
stop
Intro: 
     Bm7                A                 Em                  F#m7
E||---7--------5--3--|--5--------3--2--|--3--2--0--0--2--3--|--2------------|
B||------------------|-----------------|--------------------|---------------|
G||*-----------------|-----------------|--------------------|---------------|
D||*-----------------|-----------------|--------------------|---------------|
A||------------------|-----------------|--------------------|---------------|
E||------------------|-----------------|--------------------|---------------|


 G7+/D             G7                 A                   Bm7                       
--0--------------|-----------------|--------------------|----------------||
-----------3--2--|--3--------2--0--|--2--0--------0--2--|--0-------------||
-----------------|-----------------|--------2--2--------|---------------*||
-----------------|-----------------|--------------------|---------------*||
-----------------|-----------------|--------------------|----------------||
-----------------|-----------------|--------------------|----------------||


Verso:
  Bm7                                                                         
--2---------------------|--2---------------------|--2---------------------|
-----------3------------|-----------3------------|-----------3------------|
-------2----------------|-------2----------------|-------2----------------|
-----4---4--------------|-----4---4--------------|-----4---4--------------|
--2----------2------0h2-|--2----------2------0h2-|--2----------2------0h2-|
----------------0h2-----|----------------0h2-----|----------------0h2-----|
  Yo no canto por can -   tar

             A          Em            F#m7                   Bm7
--2----------0----------0----------|-------------2--------|--2--------2------------|
-----------3----------2----------0-|--2--------2----------|------------------------|
-------2----------2----------0-----|-------2--------------|-------2----------------|
-----4---4------2---2----------2---|---------4------------|-----4---4--------------|
--2----------0-------------2-------|-----4-------------4--|--2----------2------0h2-|
------------------------0----------|--2-------------2-----|----------------0h2-----|
 ni  por  tener  buena  voz,

                                                                           
--2--------2------------|--2--------2------------|--2--------2------------|
------------------------|------------------------|------------------------|
-------2----------------|-------2----------------|-------2----------------|
-----4---4--------------|-----4---4--------------|-----4---4--------------|
--2----------2------0h2-|--2----------2------0h2-|--2----------2------0h2-|
----------------0h2-----|----------------0h2-----|----------------0h2-----|
  can - to porque la gui - ta  -  rra

             A          Em            Bm7                                            
--2----------0----------0----------|--2--------2------------|--2----------2--------|
-----------3----------2----------0-|------------------------|-----------3-------0--|
-------2----------2----------0-----|-------2----------------|-------2--------------|
-----4---4------2---2----------2---|-----4---4--------------|-----4---4------2-----|
--2----------0-------------2-------|--2----------2------0h2-|--2----------2--------|
------------------------0----------|----------------0h2-----|----------------------|
tie - ne sen - ti - do y ra - zón.

    Em                       A                        Em                          
|---0----------0----------|--0----------0----------|--0----------0----------|
|------------0----------0-|-----------2----------2-|-----------0----------0-|
|*-------0----------0-----|-------2----------2-----|-------0----------0-----|
|*---------2----------2---|-----2---2------2---2---|---------2----------2---|
|------2----------2-------|--0----------0----------|-----2----------2-------|
|---0----------0----------|------------------------|--0----------0----------|
    Tie - ne corazón  de    tie  -  rra               y alas de  pa - lo -  

  A                                                 D          F#m              
--0----------0----------|--0---------------------|--2--------2-2----------|
-----------2----------2-|-----------2------------|-------3--------------2-|
-------2----------2-----|-------2----------------|-----2---2--------2-----|
-----2---2------2---2---|-----2---2----------0h2-|--0-----------------4---|
--0----------0----------|--0----------0--2h4-----|----------------4-------|
------------------------|------------------------|-------------2----------|
 mi  -   ta,                                        es como el agua ben - 

  A          Em            D          A             D  (final 1)            
--0----------0----------|--2----2---2-0----------|--2--------2-2--------2-|
-----------2----------0-|----------------------2-|-------3----------3-----|
-------2----------0-----|-----2---2--------2-----|-----2---2------2---2---|
-----2---2----------2---|--0-------------2---2---|--0----------0----------|
--0-------------2-------|-------------0----------|------------------------|
-------------0----------|------------------------|------------------------|
  di  -  ta,               san-ti-gua  glorias y    pe -  nas 

  (final 1)                  D  (final 2)
--2--------2-2--------2--||--2--------2-2--------2-|--2---------------------|
-------3----------3------||-------3----------3-----|-----------3------------|
-----2---2------2---2---*||-----2---2------2---2---|-------2----------------|
--0----------0----------*||--0----------0----------|-----4---4--------------|
-------------------------||------------------------|--2----------2------0h2-|
-------------------------||------------------------|----------------0h2-----|
                             ve  -  ra.
Aquí se encajó mi canto,
como dijera Violeta,
guitarra trabajadora
con olor a primavera.

                                                                           
--2---------------------|--2---------------------|--2---------------------|
-----------3------------|-----------3------------|-----------3------------|
-------2----------------|-------2----------------|-------2----------------|
-----4---4--------------|-----4---4--------------|-----4---4--------------|
--2----------2------0h2-|--2----------2------0h2-|--2----------2------0h2-|
----------------0h2-----|----------------0h2-----|----------------0h2-----|

Que no es guitarra de ricos
ni cosa que se parezca,
mi canto es de los andamios
para alcanzar las estrellas.
Que el canto tiene sentido
cuando palpita en las venas
del que morirá cantando
las verdades verdaderas,
no las lisonjas fugaces
ni las famas extranjeras
sino el canto de una lonja
hasta el fondo de la tierra.

Intro

Ahí donde llega todo
y donde todo comienza,
canto que ha sido valiente
siempre será canción nueva,
           A          Em-Bm7
siempre será canción nueva,
           A          Em         Bm9
siempre será canción nue...eh eh va.


Acordes usados :

     Bm7 F#m7 G7+/D G7   Bm9  
E||---2---2----2-----2----2----
B||---3---2----0-----0----2----
G||---2---2----0-----0----4----
D||---4---2----0-----0----4----
A||---2---4----------0----2----
E||---2---2----------3----2----

            
            
Suggest correction
Creating personal tab
Creating personal tab
You can edit any tab online and save it as your Personal.

You can edit, replace or remove any tab part or add personal notes – all changes will be seen only by you.

Personal tabs can be accessed anytime from any device, even offline.
Learn more »
Give kudos to tab author, rate the tab!
1 2 3 4 5
comments
print report bad tab
guest
Wanna post a correction for this tab? Suggest correction