Oops, an error
Loading. Please wait.

Muchachas Del Telar chords

22 views 1 this week
no commentswrite comment
1 2 3 4 5
3 more votes to show rating
add to favorites
×
Save as Personal and add changes to this tab that will be seen only by you. Learn more ›
×
You can save this tab as Personal to edit and correct it or add notes. All changes will be seen only by you. Learn more »
launch autoscroll
font size
0
reset
transpose
0
reset
simplify chords
display chords
guitar tuner
edit
Autoscroll
slow
fast
+/-
esc
set tempo
stop
Strumming
There is no strumming pattern for this song yet. and get +5 IQ
Hola a todos los fanáticos de Victor Jara. Esta canción
es de otra página de internet, cualquier cosa me la
mandan a mi mail.

Intro:

    Em/B      Em/C       Em/C#     Em/C      Em/B      Em/C       Em/C#      Em/C
E||--------------------|--------------------|--------------------|--------------------|
B||--------0--------0--|--------0--------0--|--------0--------0--|--------0--------0--|
G||-----0--------0-----|-----0--------0-----|-----0--------0-----|-----0--------0-----|
D||--------------------|--------------------|--------------------|--------------------|
A||--2--------3--------|--4--------3--------|--2--------3--------|--4--------3--------|
E||--------------------|--------------------|--------------------|--------------------|

 Em/B      Em/C        A        D           B7                    Em
--------------------|--------0-----------|--------------2------||
--------0--------0--|--------2--------3--|------------0--------||
-----0--------0-----|-----2--------2-----|----------2----------||
--------------------|-----------0--------|--0h1---1------------||
--2--------3--------|--0-----------------|------2--------------||
--------------------|--------------------|---------------------||

Em
A ti te llamaría Ana,
        Bm
te llamaría Juana,
        Em
te llamaría Rosa,
         G
te llamaría Hermosa,
      Am
hilandera morena,
       F
pequeña mariposa,
       B7
obrera del telar.

Que fuiste
esclava de la fábrica,
esclava de lamáquina,
esclava de un horario,
esclava de un salario,
hilandera morena,
pequeña mariposa,
obrera del telar.

Em/B  Em/C  Em/C#
Gira, gira, gira,
Em/C    Em/B
gira muchacha,
Em/C     Em/C#
gira el ovillo
Em/C    Em/B-Em/C - Em/C# - Em/C
de tu destino.
Em/B  Em/C  Em/C#
Gira, gira, gira
Em/C    Em/B
gira muchacha,
Am      Em
teje el hilo
Am
de tu destino.
    E          D7+/F#  E
Tu vida está en el taller,
         D7+/F#  E
ahí se podrán tejer
               D7+/F#  G
con tus manos y las demás
B7         E       D7+/F# E6
telas que vistan la libertad.

    E          D7+/F#  E
Tu vida está en el taller,
         D7+/F#  E
ahí se podrán tejer
               D7+/F#  G
con tus manos y las demás
B7         E       D7+/F# E6
telas que vistan la libertad.


Acordes usados :

   B7  E6 D7+/F# Em/B Em/C Em/C#
---2---0----2-----0----0----0-----
---0---2----2-----0----0----0-----
---2---1----2-----0----0----0-----
---1---2----0---------------------
---2---2----0-----2----3----4-----
---0---0----2---------------------

            
            
Suggest correction
Creating personal tab
Creating personal tab
You can edit any tab online and save it as your Personal.

You can edit, replace or remove any tab part or add personal notes – all changes will be seen only by you.

Personal tabs can be accessed anytime from any device, even offline.
Learn more »
Give kudos to tab author, rate the tab!
1 2 3 4 5
comments
print report bad tab
guest
Wanna post a correction for this tab? Suggest correction