Oops, an error
Loading. Please wait.

Oiga Pues Mijita tab

37 views 1 this week
no commentswrite comment
1 2 3 4 5
3 more votes to show rating
add to favorites
×
Save as Personal and add changes to this tab that will be seen only by you. Learn more ›
×
You can save this tab as Personal to edit and correct it or add notes. All changes will be seen only by you. Learn more »
launch autoscroll
font size
0
reset
how to read this tab
guitar tuner
edit
Autoscroll
slow
fast
+/-
esc
set tempo
stop
Intro:

E||------10--12--10-|----------------|---------------|--------------|
B||-----------------|---13--12--10---|--12--13--12---|--10----------|
G||-----------------|----------------|---------------|------12--11--|
D||-----------------|----------------|---------------|--------------|
A||-----------------|----------------|---------------|--------------|
E||-----------------|----------------|---------------|--------------|

E||-----------------|-------------12-|
B||----10--10-------|----------12----|
G||------------11---|---9---12-------|
D||-----------------|----------------|
A||-----------------|----------------|
E||-----------------|----------------|  x2

MIm
Que vivan los días libres,
MIm
viva el San Lunes,
              SIm
viva el San Güish,
MIm
viva la Semana Santa,
MIm                         SIm
viva el Dieciocho y el chacolí.

  SOL               DO
B)Viva la picá que tengo
             LA              RE
con Juan ?el pillo? y con el José,
 SOL              DO
somos consuetudinarios
          LA         SOL-LAm-SIm-MIm
socios firmeza de la U.T.T.


A)En el matrimonio, m?hija,
algunas cosas se hacen de a dos
y si se casó conmigo, perrita,
qué quiere que le haga yo.
B)Y esa pila?e chiquillos,
si usté los quiso cuídelos.
Usted patrona es mi reina,
usted solita, las otras no.

A)Cada peso que yo gano, m?hijita,
toito yo se lo doy;
B)le doy pa? parar la ollita,
tení la radio de diversión.
Le parcho la fonolita
y con dos catres ?tamos reflor.

A)Oiga pues, m?hijita, entienda,
cambiar de rumbo no es payasá,
así que vamos con calma
los adelantos, quese callá.
B)Yo sé que usted y los vecinos
ponen el hombro por los demás,
y yo como empino el codo
dejo la fuerza en otro lugar.

A)Seguro encontraron pega
José del Carmen y el loco Juan
y me voy quedando solo
el fin de semana en la picá?,
B)voy a hacerle un empeñito,
a ver m?hijita como me va,
cómo sabe si me gusta
ponerle pino a esta empaná.

            
            
Suggest correction
Creating personal tab
Creating personal tab
You can edit any tab online and save it as your Personal.

You can edit, replace or remove any tab part or add personal notes – all changes will be seen only by you.

Personal tabs can be accessed anytime from any device, even offline.
Learn more »
Give kudos to tab author, rate the tab!
1 2 3 4 5
comments
print report bad tab
guest
Wanna post a correction for this tab? Suggest correction