Oops, an error
Loading. Please wait.

Oiga Pues Mijita chords

85 views 1 this week
no commentswrite comment
1 2 3 4 5
3 more votes to show rating
add to favorites
×
Save as Personal and add changes to this tab that will be seen only by you. Learn more ›
×
You can save this tab as Personal to edit and correct it or add notes. All changes will be seen only by you. Learn more »
launch autoscroll
font size
0
reset
transpose
0
reset
simplify chords
display chords
guitar tuner
edit
Autoscroll
slow
fast
+/-
esc
set tempo
stop
Strumming
There is no strumming pattern for this song yet. and get +5 IQ
Intro: (Charango)

      G               Am              Bm              Em
E||----------------|---------------|---------------|---------0-----|
A||*--5----7-5-3-2-|--0--2-3--2-0--|-------2--2----|-------2------*|
E||----------------|---------------|--3--2------3--|--0--3---------|
C||*---------------|---------------|---------------|--------------*|
G||----------------|---------------|---------------|---------------|

    (arreglo para guitarra)
E||----------------|---------------|---------------|---------0-----|
B||*--3----5-3-----|---------------|---------------|-------0------*|
G||------------5-4-|--2--4-5--4-2--|-------4--4----|-----0---------|
D||*---------------|---------------|--5--4------5--|--2-----------*|
A||----------------|---------------|---------------|---------------|
E||----------------|---------------|---------------|---------------|

Em                  Bm
Que vivan los días libres
            Em
viva el San Lunes,
              Bm
viva el "San Güish",
 Em             Bm
viva la semana santa,
            Em              Bm
viva el dieciocho y el chacolí.
 G                Em
Viva la picá que tengo
              A                 D
con Juan "el pillo" y con el José
 G               Em
somos consuetudinarios
           A             G
socios firmeza de la U.T.T tete rete
Am
tei te tei tei te
Bm                Em
tei te tei tei tei tei tei.

(Intro)

En el matrimonio m'hija,
algunas cosas se hacen de a dos
y si se casó conmigo, perrita
qué quiere que le haga yo.
Y esa pila 'e chiquillos
si usté los quiso, cuídelos.
Usted patrona es mi reina
usted solita la otras no.

(Intro)

Em                Bm
Cada peso que yo gano, m'hijita,
  Em            Bm
toito yo se lo doy;
     G                 Em
les doy pa' parar la ollita
    A               D
la radio de diversión.
    G            Em
Le parcho la fonolita
           A                G
y con dos catres 'tamos reflor.

Oiga pues, m'hijita, entienda,
cambiar de rumbo no es payasá,
así que vamos con calma
los adelantos, q'ese callá'.
Yo sé que usted y los vecinos
ponen el hombro por los demás,
y yo como empino el codo
tengo la fuerza en otro lugar.

(Intro)

Seguro encontraron pega
José del Carmen y el loco Juan
y me voy quedando solo
el fin de semana en la picá,
voy a hacerle un empeñito,
a ver m'hijita como me va,
cómo sabe si me gusta
         A               G - Am - Bm - Em - G - Am - B7 - E
ponerle pino a esta empaná.


Acordes usados :

   Bm   G   Em  B7
---2----3---0---2---
---3----0---0---0---
---4----0---0---2---
---4----0---2---1---
---2----2---2---2---
---2----3---0---0---

Transcrito por: Maikel B. ©
Título: Oiga Pues M'hijita.
Álbum(es): Single, Lado A (1971)
Autor(es): Víctor Jara.
Instrumentos Usados: Charangos, violín, guitarra, contrabajo, caja.

            
            
Suggest correction
Creating personal tab
Creating personal tab
You can edit any tab online and save it as your Personal.

You can edit, replace or remove any tab part or add personal notes – all changes will be seen only by you.

Personal tabs can be accessed anytime from any device, even offline.
Learn more »
Give kudos to tab author, rate the tab!
1 2 3 4 5
comments
print report bad tab
guest
Wanna post a correction for this tab? Suggest correction