Oops, an error
Loading. Please wait.

Paloma Quiero Contarte tab

version 1
version 1

Whole song

114 views 1 this week
no commentswrite comment
1 2 3 4 5
3 more votes to show rating
add to favorites
×
Save as Personal and add changes to this tab that will be seen only by you. Learn more ›
×
You can save this tab as Personal to edit and correct it or add notes. All changes will be seen only by you. Learn more »
launch autoscroll
font size
0
reset
how to read this tab
guitar tuner
edit
Autoscroll
slow
fast
+/-
esc
set tempo
stop
Intro:

E:----0---0---0----------2-----2-----------
B:----0---0---0----------3-----3-----------
G:----1---1---1----------2-----2-----------
D:----2---2---2-------0-----4--------------
A:----2---2---2----------------------------
E:----0---0---0----------------------------


E:----0---0---0----------2------2----------
B:----0---0---0----------3------3----------
G:----1---1---1----------2------2----------
D:----2---2---2-------0------4-------------
A:----2---2---2----------------------------
E:----0---0---0----------------------------


E:----0---0---0-----------7---------7---------7----
B:----0---0---0--------9---------9---------9-------
G:----1---1---1------------------------------------
D:----2---2---2------------------------------------
A:----2---2---2-----7---------7--------7-----------
E:----0---0---0------------------------------------
                
                 |p.m.| 
E:------------0----0----2----------5--------5--------5----
B:-----------0----0-----3-------7--------7--------7-------
G:----------1----1------2---------------------------------
D:----2----2----2----0------------------------------------
A:--------2------------------5--------5--------5----------
E:-------0------------------------------------------------
                                                           
                 |p.m.|
E:------------0----0----2----------7--------7--------7----
B:-----------0----0-----3-------9--------9--------9-------
G:----------1----1------2---------------------------------
D:----2----2----2----0------------------------------------
A:--------2------------------7--------7--------7----------
E:-------0------------------------------------------------
                
                  |p.m.|
E:------------0----0----2----------5--------5--------5----
B:-----------0----0-----3-------7--------7--------7-------
G:----------1----1------2---------------------------------
D:----2----2----2----0------------------------------------
A:--------2------------------5--------5--------5----------
E:-------0------------------------------------------------                     
                                      
                 |p.m.|                       |p.m.|
E:------------0----0---------------4--------4---4---------
B:-----------0----0--------------5----------5---5---------
G:----------1----1-------------4------------4---4---------
D:----2----2----2----------------------2----2-------------
A:--------2-----------------2---------------2-------------
E:-------0------------------------------------------------                 
                                        
                       |p.m.|
E:-----------4-------4---4---------------------------
B:---------5---------5---5---------------------------
G:-------4-----------4---4---------------------------
D:----0---------2----2-------------------------------
A:-------------------2-------------------------------
E:---------------------------------------------------                                 


                         |p.m.|
E:------------4--------4---4-------------
B:----------5----------5---5-------------
G:--------4------------4---4-------------
D:----------------2----2-----------------
A:-----2---------------2-----------------
E:---------------------------------------                 


                       |p.m.|
E:-----------4-------4---4--------------------------
B:---------5---------5---5--------------------------
G:-------4-----------4---4--------------------------
D:----0---------2----2------------------------------
A:-------------------2------------------------------
E:--------------------------------------------------                                 


MI                RE   
Paloma quiero contarte
                         MI
que estoy  solo que te quiero 
                  RE
Paloma quiero contarte
                         MI
 que estoy solo que te quiero
                   RE
que la vida se me acaba
                    SI        
Porque te tengo tan lejos
SI       RE    MI
Palomita verte quiero


Lloro con cada recuerdo
a pesar que me contengo
lloro con cada recuerdo
a pesar que me contengo
lloro con rabia pa? fuera 
pero muy hondo pa? dentro
Palomita verte quiero


Como tronco de nogal
como la  pira del cerro
como tronco de nogal 
como la pira del cerro 
el hombre puede ser hombre 
cuando camina derecho
Palomita verte quiero


Como quitarme del alma 
lo que me dejaron negro
como quitarme del alma 
lo que me dejaron negro
siempre estar vuelto hacia fuera
para cuidarse por dentro
Palomita verte quiero

            
            
Suggest correction
Creating personal tab
Creating personal tab
You can edit any tab online and save it as your Personal.

You can edit, replace or remove any tab part or add personal notes – all changes will be seen only by you.

Personal tabs can be accessed anytime from any device, even offline.
Learn more »
Give kudos to tab author, rate the tab!
1 2 3 4 5
comments
print report bad tab
guest
Wanna post a correction for this tab? Suggest correction