Oops, an error
Loading. Please wait.

Paloma Quiero Contarte tab

version 2
version 2

Whole song

71 views 1 this week
no commentswrite comment
1 2 3 4 5
3 more votes to show rating
add to favorites
×
Save as Personal and add changes to this tab that will be seen only by you. Learn more ›
×
You can save this tab as Personal to edit and correct it or add notes. All changes will be seen only by you. Learn more »
launch autoscroll
font size
0
reset
how to read this tab
guitar tuner
edit
Autoscroll
slow
fast
+/-
esc
set tempo
stop
Nota: *Los bajos deben ir bien marcados.
      *Las notas en paréntesisis se rasguean.
      No todos los rasgueos son iguales, así
      que hay que escuchar bien el tema.

El tema va con el capo en el 3º espacio.

Intro:

      RE         RE         RE            DO
E|----(2)--------(2)--------(2)--------------0-----0---|
B|-------(3)--------(3)--------(3)---------------------| (Esta parte
G|----------(2)--------(2)--------(2)-----------0------| se hace 3
D|----(0)--------(0)--------(0)------------------------| veces; la 3ª
A|----------------------------------------3------------| sin el DO)
E|-----------------------------------------------------|

   LA      LA        LA         RE
---------5--------5--------5-------------(2)------|
--------------------------------------(3)---------| (Las cuerdas
------5--------5--------5----------(2)------------| que se pulsan
---------------------------------0----------------| en 0 marcan
---0--------0--------0----------------------------| el bajo)
--------------------------------------------------|

   DO       DO       DO          RE
---------0--------0--------0-------------(2)------|
--------------------------------------(3)---------|
------0--------0--------0----------(2)------------|
---------------------------------0----------------|
---3--------3--------3----------------------------|
--------------------------------------------------|

   LA      LA        LA         RE
---------5--------5--------5-------------(2)------|
--------------------------------------(3)---------|
------5--------5--------5----------(2)------------|
---------------------------------0----------------|
---0--------0--------0----------------------------|
--------------------------------------------------|

   DO       DO       DO          RE
---------0--------0--------0-------------(2)------|
--------------------------------------(3)---------|
------0--------0--------0----------(2)------------|
---------------------------------0----------------|
---3--------3--------3----------------------------|
--------------------------------------------------|

   DO          RE          DO          RE
------------0----------(2)-----------0----------(2)------|
---------1----------(3)-----------1----------(3)---------| (Se mantiene
------0----------(2)-----------0----------(2)------------| el rasgueo
---------------0------------------------0----------------| en RE)
---3------------------------3----------------------------|
---------------------------------------------------------|


     RE               DO                             RE   (LA - RE)*
A) :/Paloma quiero contarte que estoy solo, que te quiero/:

(LA - RE)*:

   LA      LA        LA         RE
---------5--------5--------5-------------(2)------|
--------------------------------------(3)---------| (Y sigue el
------5--------5--------5----------(2)------------| rasgueo en RE)
---------------------------------0----------------|
---0--------0--------0----------------------------|
--------------------------------------------------|

(La segunda vez no lleva LA - RE)

RE                 DO                         LA
que la vida se me acaba porque te tengo tan lejos.
    LAm  DO      RE
Palomita verte quiero.

(Intro)*

(Intro)*: Para la 2ª, 3ª & 4ª estrofa, la Intro no hace los 3 RE - DO
          que van al comienzo de ésta, sino que pasa de inmediato al
          LA - RE. Lo demás sigue igual, lo único que se salta son los
          3 RE - DO.


A) :/Lloro con cada recuerdo a pesar que me contengo/:
Lloro con rabia pa' fuera pero muy hondo pa' dentro.
Palomita verte quiero.

(Intro)*

A) :/Como tronco de nogal, como la piedra del cerro/:
El hombre puede ser hombre cuando camina derecho.
Palomita verte quiero.

(Intro)*

A) :/Cómo quitarme del alma lo que me dejaron negro/:
Siempre estar vuelto hacia afuera para cuidarse por dentro.
Palomita verte quiero.

Final: RE

            
            
Suggest correction
Creating personal tab
Creating personal tab
You can edit any tab online and save it as your Personal.

You can edit, replace or remove any tab part or add personal notes – all changes will be seen only by you.

Personal tabs can be accessed anytime from any device, even offline.
Learn more »
Give kudos to tab author, rate the tab!
1 2 3 4 5
comments
print report bad tab
guest
Wanna post a correction for this tab? Suggest correction