Oops, an error
Loading. Please wait.

Poema Número 15 tab

79 views 9 this week
no commentswrite comment
1 2 3 4 5
3 more votes to show rating
add to favorites
×
Save as Personal and add changes to this tab that will be seen only by you. Learn more ›
×
You can save this tab as Personal to edit and correct it or add notes. All changes will be seen only by you. Learn more »
launch autoscroll
font size
0
reset
how to read this tab
guitar tuner
edit
Autoscroll
slow
fast
+/-
esc
set tempo
stop
Intro:
(La original va con la guitarra afinada 1 tono más bajo, o sea: RE)

D||-----0-----0------0---|-----0-----0-------|
A||----------------------|-------------------|
F||--5-----5-------5---5-|--5-----5-----5----|
C||--5-----5-----5-------|--4-----4-----4----|
G||----------------------|-------------------|
D||----------------------|-------------------|

-----0-----0------0---|-----0-----0-------|
----------------------|-------------------|
--5-----5-------5---5-|--4-----4-----4----|
--3-----3-----3-------|--2-----2-----2----|
----------------------|-------------------|
----------------------|-------------------|


--------------|------------------|
------0---0---|------0---0-------|
------2-------|------0-----------|
----4---4---4-|----4---4---4-----|
--4-----------|--2---------------|
--------------|--------------3-2-|

    Em          D6/F#     Em
----------------------|-------------------||
-----0-----0------0---|-----0-----0-------||
-----0-----0------2---|-----0-----0-------||
-----2-----2----0---0-|-----2-----2--2----||
-----2----------------|-----2--2-----2----||
--0-----0-----2-------|--0-----0-----0----||


Em               C7+/G               A7
Me gustas cuando callas porque estás como ausente,
     C                                C7 
y me oyes desde lejos, y mi voz no te toca.
Bm                          Dm7          - C7+/G
Parece que los ojos se te hubieran volado
                          F#m      Am(Bm)Em (Bm) Em (Bm) Em
y parece que un beso te cerrara la bo____ca.

Me gustas cuando callas y estás como distante.
Y estás como quejándote, mariposa en arrullo.
Y me oyes desde lejos, y mi voz no te alcanza:
déjame que me calle con el silencio tuyo.

(Intro)

Déjame que te hable también con tu silencio
claro como un lámpara, simple como un anillo.
Eres como la noche, callada & constelada.
Tu silencio es de estrella, tan lejano & sencillo.

Me gustas cuando callas porque estás como ausente.
Distante & dolorosa como si hubieras muerto.
Una palabra entonces, una sonrisa bastan.
Y estoy alegre, alegre de que no sea cier___to.

Bm               Dm7              C7+/G
Una palabra entonces, una sonrisa bastan.
                         F#m                  C (Bm)Em
Y estoy alegre, alegre, alegre de que no sea cier___to.


Acordes:

    D6/F# C7+/G  A7  C  C7   Dm7
D||---2-----0----0---3---3----5----
A||---0-----0----5---5---5----6----
F||---2-----0----6---5---4----5----
C||---0-----2----5---5---5----7----
G||---------3----0---3---3----5----
D||---2-----3----0---3---3----5----

            
            
Suggest correction
Creating personal tab
Creating personal tab
You can edit any tab online and save it as your Personal.

You can edit, replace or remove any tab part or add personal notes – all changes will be seen only by you.

Personal tabs can be accessed anytime from any device, even offline.
Learn more »
Give kudos to tab author, rate the tab!
1 2 3 4 5
comments
print report bad tab
guest
Wanna post a correction for this tab? Suggest correction