Oops, an error
Loading. Please wait.

Preguntas Por Puerto Montt tab

91 views 1 this week
no commentswrite comment
1 2 3 4 5
2 more votes to show rating
add to favorites
×
Save as Personal and add changes to this tab that will be seen only by you. Learn more ›
×
You can save this tab as Personal to edit and correct it or add notes. All changes will be seen only by you. Learn more »
launch autoscroll
font size
0
reset
how to read this tab
guitar tuner
edit
Autoscroll
slow
fast
+/-
esc
set tempo
stop
He aquí otra tab. Lo siento por el bro que mandó la
otra, pero ésta está 100% correcta y revisada. La otra
está en otro tono. Suerte!!!!!!!!!!!!!!!!!!!!!!!!!1

Intro: 

     F7                             Dm
E||------------5--------5--------|-----------1--------1---------||
B||---------5-----5--------5-----|--------3-----3--------3------||
G||*-----5-----------5--------5--|-----2-----------2--------2--*||
D||*--3--------------------------|--0--------------------------*||
A||------------------------------|------------------------------||
E||------------------------------|------------------------------||


  A7                            Eº     A7       Eº         A7      Bb  C   D
-----------0--------0--------|--------------------------|------------------------|
--------2-----2--------2-----|--------------------------|------------------------|
-----0-----------0--------0--|------3-------0-------3---|------0-----3---5---7---|
-----------------------------|----2---2---2---2---2---2-|----2-------------------|
--0--------------------------|--1-------0-------1-------|--0-----0-1---3---5-----|
-----------------------------|--------------------------|------------------------|


 Fin Intro              Verso:  Dm                                                  
--------------|--------------|--1h0-------0--------|--1h0-------0--------|
--------------|--------------|------3--------3-----|------3--------3-----|
--------------|--------------|---------2--------2--|---------2--------2--|
--------------|--------------|--0---------0--------|--0---------0--------|
--------------|--------------|---------------------|---------------------|
--------------|--------------|---------------------|---------------------|
                        

                                            
--1h0-------0--------|--1--------1----------------------------||
------3--------3-----|-----3--------3-------------------------||
---------2--------2--|--------2--------2----------------------||
--0---------0--------|--0--------0--------...sigue arpegio----||
---------------------|----------------------------------------||
---------------------|----------------------------------------||

Parte A:
Dm         
Muy bien, voy a preguntar
    F                 Bb
por ti, por ti, por aquel,
    F                Bb
por ti que quedaste solo
     A7              Dm
y el que murió sin saber.
Dm         
Muy bien, voy a preguntar
    F                 Bb
por ti, por ti, por aquel,
    F                Bb
por ti que quedaste solo
     A7              Dm
y el que murió sin saber,
           A7       Dm
el que murió sin saber. (fin arpegio, rasgueo con apagado)


Parte B:
   F 
Murió sin saber por qué
     Gm          Dm
le acrillaban el pecho,
                  A7
luchando por el derecho
                    Dm
de un suelo para vivir.
          F           Dm
¡Ay! que ser más infeliz
        F            Dm
el que mandó a disparar
      A7         Dm
sabiendo cómo evitar
     F           Dm
una matanza tan vil.
         F               Dm
¡Puerto Montt oh Puerto Montt!
         F               Dm
¡Puerto Montt oh Puerto Montt!
         A7              Dm
¡Puerto Montt oh Puerto Montt!
         F               Dm  -  A7 - Dm
¡Puerto Montt oh Puerto Montt!


Parte A:
Usted debe responder,
señor Pérez Zujovic,
por qué al pueblo indefenso
contestaron con fusil.
Señor Pérez, su conciencia
la enterró en un ataúd
y no limpiarán sus manos
toda la lluvia del sur,
toda la lluvia del sur.


Parte B:
Murió sin saber por qué...


Acordes:

   F7   A7  Eº  Bb  Gm
---5----0---0---1---3---
---5----2---0---3---3---
---5----0---3---3---3---
---3----2---2---3---5---
--------0---1---1---5---
------------0---1---3---

Saludos para mi prima Jahzeel, 
con quien solíamos cantar este tema en nuestras serenatas domingueras.

            
            
Suggest correction
Creating personal tab
Creating personal tab
You can edit any tab online and save it as your Personal.

You can edit, replace or remove any tab part or add personal notes – all changes will be seen only by you.

Personal tabs can be accessed anytime from any device, even offline.
Learn more »
Give kudos to tab author, rate the tab!
1 2 3 4 5
comments
print report bad tab
guest
Wanna post a correction for this tab? Suggest correction